  0
SECTION
  2
ENTITIES
  0
POLYLINE
  8
4
 62
     2
 66
     1
 10
0
 20
0
 30
0
 70
     0
  0
VERTEX
  8
4
 62
     2
 10
-68.25
 20
20.4921
 30
0
 70
     0
  0
VERTEX
  8
4
 62
     2
 10
3.25
 20
20.4921
 30
0
 70
     0
  0
VERTEX
  8
4
 62
     2
 10
3.25
 20
-11.5376
 30
0
 70
     0
  0
VERTEX
  8
4
 62
     2
 10
-68.25
 20
-11.5376
 30
0
 70
     0
  0
VERTEX
  8
4
 62
     2
 10
-68.25
 20
20.4921
 30
0
 70
     0
  0
SEQEND
  0
POLYLINE
  8
1
 62
    15
 66
     1
 10
0
 20
0
 30
0
 70
     0
  0
VERTEX
  8
1
 62
    15
 10
-25.7894
 20
12.3545
 30
0
 70
     0
  0
VERTEX
  8
1
 62
    15
 10
-39.2106
 20
12.3545
 30
0
 70
     0
  0
SEQEND
  0
POLYLINE
  8
1
 62
    15
 66
     1
 10
0
 20
0
 30
0
 70
     0
  0
VERTEX
  8
1
 62
    15
 10
-32.5
 20
8.13754
 30
0
 70
     0
  0
VERTEX
  8
1
 62
    15
 10
-32.5
 20
20.4921
 30
0
 70
     0
  0
SEQEND
  0
POLYLINE
  8
1
 62
    15
 66
     1
 10
0
 20
0
 30
0
 70
     0
  0
VERTEX
  8
1
 62
    15
 10
-31.986
 20
12.6085
 30
0
 70
     0
  0
VERTEX
  8
1
 62
    15
 10
-31.9153
 20
11.8247
 30
0
 70
     0
  0
VERTEX
  8
1
 62
    15
 10
-31.852
 20
11.1688
 30
0
 70
     0
  0
VERTEX
  8
1
 62
    15
 10
-31.7976
 20
10.6274
 30
0
 70
     0
  0
VERTEX
  8
1
 62
    15
 10
-31.7536
 20
10.1867
 30
0
 70
     0
  0
VERTEX
  8
1
 62
    15
 10
-31.7212
 20
9.83392
 30
0
 70
     0
  0
VERTEX
  8
1
 62
    15
 10
-31.7005
 20
9.5606
 30
0
 70
     0
  0
VERTEX
  8
1
 62
    15
 10
-31.6915
 20
9.36016
 30
0
 70
     0
  0
VERTEX
  8
1
 62
    15
 10
-31.6948
 20
9.22956
 30
0
 70
     0
  0
VERTEX
  8
1
 62
    15
 10
-31.711
 20
9.16709
 30
0
 70
     0
  0
VERTEX
  8
1
 62
    15
 10
-31.718
 20
9.16836
 30
0
 70
     0
  0
SEQEND
  0
POLYLINE
  8
1
 62
    15
 66
     1
 10
0
 20
0
 30
0
 70
     0
  0
VERTEX
  8
1
 62
    15
 10
-32.5
 20
12.6085
 30
0
 70
     0
  0
VERTEX
  8
1
 62
    15
 10
-32.5
 20
11.8246
 30
0
 70
     0
  0
VERTEX
  8
1
 62
    15
 10
-32.5
 20
11.1688
 30
0
 70
     0
  0
VERTEX
  8
1
 62
    15
 10
-32.5
 20
10.6274
 30
0
 70
     0
  0
VERTEX
  8
1
 62
    15
 10
-32.5
 20
10.1867
 30
0
 70
     0
  0
VERTEX
  8
1
 62
    15
 10
-32.5
 20
9.83398
 30
0
 70
     0
  0
VERTEX
  8
1
 62
    15
 10
-32.5
 20
9.56069
 30
0
 70
     0
  0
VERTEX
  8
1
 62
    15
 10
-32.5
 20
9.36024
 30
0
 70
     0
  0
VERTEX
  8
1
 62
    15
 10
-32.5
 20
9.22963
 30
0
 70
     0
  0
VERTEX
  8
1
 62
    15
 10
-32.5
 20
9.16711
 30
0
 70
     0
  0
VERTEX
  8
1
 62
    15
 10
-32.5
 20
9.16837
 30
0
 70
     0
  0
SEQEND
  0
POLYLINE
  8
1
 62
    15
 66
     1
 10
0
 20
0
 30
0
 70
     0
  0
VERTEX
  8
1
 62
    15
 10
-31.986
 20
12.6085
 30
0
 70
     0
  0
VERTEX
  8
1
 62
    15
 10
-32.0374
 20
12.6085
 30
0
 70
     0
  0
VERTEX
  8
1
 62
    15
 10
-32.0888
 20
12.6085
 30
0
 70
     0
  0
VERTEX
  8
1
 62
    15
 10
-32.1402
 20
12.6085
 30
0
 70
     0
  0
VERTEX
  8
1
 62
    15
 10
-32.1916
 20
12.6085
 30
0
 70
     0
  0
VERTEX
  8
1
 62
    15
 10
-32.243
 20
12.6085
 30
0
 70
     0
  0
VERTEX
  8
1
 62
    15
 10
-32.2944
 20
12.6085
 30
0
 70
     0
  0
VERTEX
  8
1
 62
    15
 10
-32.3458
 20
12.6085
 30
0
 70
     0
  0
VERTEX
  8
1
 62
    15
 10
-32.3972
 20
12.6085
 30
0
 70
     0
  0
VERTEX
  8
1
 62
    15
 10
-32.4486
 20
12.6085
 30
0
 70
     0
  0
VERTEX
  8
1
 62
    15
 10
-32.5
 20
12.6085
 30
0
 70
     0
  0
SEQEND
  0
POLYLINE
  8
1
 62
     3
 66
     1
 10
0
 20
0
 30
0
 70
     0
  0
VERTEX
  8
1
 62
     3
 10
-28.804
 20
14.6795
 30
0
 70
     0
  0
VERTEX
  8
1
 62
     3
 10
-28.8509
 20
14.4776
 30
0
 70
     0
  0
VERTEX
  8
1
 62
     3
 10
-28.9096
 20
14.286
 30
0
 70
     0
  0
VERTEX
  8
1
 62
     3
 10
-28.9802
 20
14.1048
 30
0
 70
     0
  0
VERTEX
  8
1
 62
     3
 10
-29.0625
 20
13.934
 30
0
 70
     0
  0
VERTEX
  8
1
 62
     3
 10
-29.1566
 20
13.7735
 30
0
 70
     0
  0
VERTEX
  8
1
 62
     3
 10
-29.2626
 20
13.6233
 30
0
 70
     0
  0
VERTEX
  8
1
 62
     3
 10
-29.3804
 20
13.4835
 30
0
 70
     0
  0
VERTEX
  8
1
 62
     3
 10
-29.5099
 20
13.3541
 30
0
 70
     0
  0
VERTEX
  8
1
 62
     3
 10
-29.6513
 20
13.235
 30
0
 70
     0
  0
VERTEX
  8
1
 62
     3
 10
-29.8045
 20
13.1263
 30
0
 70
     0
  0
VERTEX
  8
1
 62
     3
 10
-29.9695
 20
13.0279
 30
0
 70
     0
  0
VERTEX
  8
1
 62
     3
 10
-30.1463
 20
12.9399
 30
0
 70
     0
  0
VERTEX
  8
1
 62
     3
 10
-30.3349
 20
12.8622
 30
0
 70
     0
  0
VERTEX
  8
1
 62
     3
 10
-30.5354
 20
12.7949
 30
0
 70
     0
  0
VERTEX
  8
1
 62
     3
 10
-30.7476
 20
12.738
 30
0
 70
     0
  0
VERTEX
  8
1
 62
     3
 10
-30.9717
 20
12.6914
 30
0
 70
     0
  0
VERTEX
  8
1
 62
     3
 10
-31.2076
 20
12.6551
 30
0
 70
     0
  0
VERTEX
  8
1
 62
     3
 10
-31.4552
 20
12.6292
 30
0
 70
     0
  0
VERTEX
  8
1
 62
     3
 10
-31.7147
 20
12.6137
 30
0
 70
     0
  0
VERTEX
  8
1
 62
     3
 10
-31.986
 20
12.6085
 30
0
 70
     0
  0
SEQEND
  0
POLYLINE
  8
1
 62
     3
 66
     1
 10
0
 20
0
 30
0
 70
     0
  0
VERTEX
  8
1
 62
     3
 10
-28.804
 20
14.6795
 30
0
 70
     0
  0
VERTEX
  8
1
 62
     3
 10
-27.774
 20
14.9635
 30
0
 70
     0
  0
VERTEX
  8
1
 62
     3
 10
-27.0067
 20
15.2682
 30
0
 70
     0
  0
VERTEX
  8
1
 62
     3
 10
-26.5415
 20
15.6018
 30
0
 70
     0
  0
VERTEX
  8
1
 62
     3
 10
-26.3995
 20
15.978
 30
0
 70
     0
  0
VERTEX
  8
1
 62
     3
 10
-26.5092
 20
16.227
 30
0
 70
     0
  0
SEQEND
  0
POLYLINE
  8
1
 62
     3
 66
     1
 10
0
 20
0
 30
0
 70
     0
  0
VERTEX
  8
1
 62
     3
 10
-31.986
 20
12.6085
 30
0
 70
     0
  0
VERTEX
  8
1
 62
     3
 10
-31.852
 20
11.169
 30
0
 70
     0
  0
VERTEX
  8
1
 62
     3
 10
-31.7536
 20
10.1867
 30
0
 70
     0
  0
VERTEX
  8
1
 62
     3
 10
-31.7005
 20
9.56063
 30
0
 70
     0
  0
VERTEX
  8
1
 62
     3
 10
-31.6948
 20
9.22956
 30
0
 70
     0
  0
VERTEX
  8
1
 62
     3
 10
-31.7228
 20
9.19401
 30
0
 70
     0
  0
SEQEND
  0
POLYLINE
  8
1
 62
    11
 66
     1
 10
0
 20
0
 30
0
 70
     0
  0
VERTEX
  8
1
 62
    11
 10
-28.804
 20
14.6795
 30
0
 70
     0
  0
VERTEX
  8
1
 62
    11
 10
-28.8509
 20
14.4776
 30
0
 70
     0
  0
VERTEX
  8
1
 62
    11
 10
-28.9096
 20
14.286
 30
0
 70
     0
  0
VERTEX
  8
1
 62
    11
 10
-28.9801
 20
14.1048
 30
0
 70
     0
  0
VERTEX
  8
1
 62
    11
 10
-29.0625
 20
13.934
 30
0
 70
     0
  0
VERTEX
  8
1
 62
    11
 10
-29.1566
 20
13.7735
 30
0
 70
     0
  0
VERTEX
  8
1
 62
    11
 10
-29.2626
 20
13.6233
 30
0
 70
     0
  0
VERTEX
  8
1
 62
    11
 10
-29.3803
 20
13.4835
 30
0
 70
     0
  0
VERTEX
  8
1
 62
    11
 10
-29.5099
 20
13.3541
 30
0
 70
     0
  0
VERTEX
  8
1
 62
    11
 10
-29.6513
 20
13.235
 30
0
 70
     0
  0
VERTEX
  8
1
 62
    11
 10
-29.8045
 20
13.1263
 30
0
 70
     0
  0
VERTEX
  8
1
 62
    11
 10
-29.9695
 20
13.0279
 30
0
 70
     0
  0
VERTEX
  8
1
 62
    11
 10
-30.1463
 20
12.9399
 30
0
 70
     0
  0
VERTEX
  8
1
 62
    11
 10
-30.3349
 20
12.8622
 30
0
 70
     0
  0
VERTEX
  8
1
 62
    11
 10
-30.5354
 20
12.7949
 30
0
 70
     0
  0
VERTEX
  8
1
 62
    11
 10
-30.7476
 20
12.738
 30
0
 70
     0
  0
VERTEX
  8
1
 62
    11
 10
-30.9717
 20
12.6914
 30
0
 70
     0
  0
VERTEX
  8
1
 62
    11
 10
-31.2075
 20
12.6551
 30
0
 70
     0
  0
VERTEX
  8
1
 62
    11
 10
-31.4552
 20
12.6292
 30
0
 70
     0
  0
VERTEX
  8
1
 62
    11
 10
-31.7147
 20
12.6137
 30
0
 70
     0
  0
VERTEX
  8
1
 62
    11
 10
-31.986
 20
12.6085
 30
0
 70
     0
  0
SEQEND
  0
POLYLINE
  8
1
 62
    11
 66
     1
 10
0
 20
0
 30
0
 70
     0
  0
VERTEX
  8
1
 62
    11
 10
-27.774
 20
14.9635
 30
0
 70
     0
  0
VERTEX
  8
1
 62
    11
 10
-27.8169
 20
14.5942
 30
0
 70
     0
  0
VERTEX
  8
1
 62
    11
 10
-27.8766
 20
14.2433
 30
0
 70
     0
  0
VERTEX
  8
1
 62
    11
 10
-27.9532
 20
13.911
 30
0
 70
     0
  0
VERTEX
  8
1
 62
    11
 10
-28.0467
 20
13.5973
 30
0
 70
     0
  0
VERTEX
  8
1
 62
    11
 10
-28.1572
 20
13.3024
 30
0
 70
     0
  0
VERTEX
  8
1
 62
    11
 10
-28.2846
 20
13.0261
 30
0
 70
     0
  0
VERTEX
  8
1
 62
    11
 10
-28.429
 20
12.7687
 30
0
 70
     0
  0
VERTEX
  8
1
 62
    11
 10
-28.5903
 20
12.5302
 30
0
 70
     0
  0
VERTEX
  8
1
 62
    11
 10
-28.7687
 20
12.3106
 30
0
 70
     0
  0
VERTEX
  8
1
 62
    11
 10
-28.964
 20
12.1099
 30
0
 70
     0
  0
VERTEX
  8
1
 62
    11
 10
-29.1763
 20
11.9282
 30
0
 70
     0
  0
VERTEX
  8
1
 62
    11
 10
-29.4056
 20
11.7656
 30
0
 70
     0
  0
VERTEX
  8
1
 62
    11
 10
-29.6518
 20
11.622
 30
0
 70
     0
  0
VERTEX
  8
1
 62
    11
 10
-29.9151
 20
11.4975
 30
0
 70
     0
  0
VERTEX
  8
1
 62
    11
 10
-30.1953
 20
11.3921
 30
0
 70
     0
  0
VERTEX
  8
1
 62
    11
 10
-30.4925
 20
11.3059
 30
0
 70
     0
  0
VERTEX
  8
1
 62
    11
 10
-30.8066
 20
11.2387
 30
0
 70
     0
  0
VERTEX
  8
1
 62
    11
 10
-31.1376
 20
11.1908
 30
0
 70
     0
  0
VERTEX
  8
1
 62
    11
 10
-31.4855
 20
11.162
 30
0
 70
     0
  0
VERTEX
  8
1
 62
    11
 10
-31.8503
 20
11.1523
 30
0
 70
     0
  0
SEQEND
  0
POLYLINE
  8
1
 62
    11
 66
     1
 10
0
 20
0
 30
0
 70
     0
  0
VERTEX
  8
1
 62
    11
 10
-27.0108
 20
15.2666
 30
0
 70
     0
  0
VERTEX
  8
1
 62
    11
 10
-27.0453
 20
14.7723
 30
0
 70
     0
  0
VERTEX
  8
1
 62
    11
 10
-27.101
 20
14.3027
 30
0
 70
     0
  0
VERTEX
  8
1
 62
    11
 10
-27.1165
 20
14.2134
 30
0
 70
     0
  0
VERTEX
  8
1
 62
    11
 10
-27.1785
 20
13.8582
 30
0
 70
     0
  0
VERTEX
  8
1
 62
    11
 10
-27.2773
 20
13.4388
 30
0
 70
     0
  0
VERTEX
  8
1
 62
    11
 10
-27.3974
 20
13.0445
 30
0
 70
     0
  0
VERTEX
  8
1
 62
    11
 10
-27.5387
 20
12.6754
 30
0
 70
     0
  0
VERTEX
  8
1
 62
    11
 10
-27.7012
 20
12.3315
 30
0
 70
     0
  0
VERTEX
  8
1
 62
    11
 10
-27.8851
 20
12.0129
 30
0
 70
     0
  0
VERTEX
  8
1
 62
    11
 10
-28.0902
 20
11.7196
 30
0
 70
     0
  0
VERTEX
  8
1
 62
    11
 10
-28.3166
 20
11.4517
 30
0
 70
     0
  0
VERTEX
  8
1
 62
    11
 10
-28.5644
 20
11.2092
 30
0
 70
     0
  0
VERTEX
  8
1
 62
    11
 10
-28.8334
 20
10.9921
 30
0
 70
     0
  0
VERTEX
  8
1
 62
    11
 10
-29.1238
 20
10.8004
 30
0
 70
     0
  0
VERTEX
  8
1
 62
    11
 10
-29.4354
 20
10.6343
 30
0
 70
     0
  0
VERTEX
  8
1
 62
    11
 10
-29.7684
 20
10.4937
 30
0
 70
     0
  0
VERTEX
  8
1
 62
    11
 10
-30.1226
 20
10.3786
 30
0
 70
     0
  0
VERTEX
  8
1
 62
    11
 10
-30.4982
 20
10.2891
 30
0
 70
     0
  0
VERTEX
  8
1
 62
    11
 10
-30.895
 20
10.2251
 30
0
 70
     0
  0
VERTEX
  8
1
 62
    11
 10
-31.3131
 20
10.1867
 30
0
 70
     0
  0
VERTEX
  8
1
 62
    11
 10
-31.7525
 20
10.1739
 30
0
 70
     0
  0
SEQEND
  0
POLYLINE
  8
1
 62
    11
 66
     1
 10
0
 20
0
 30
0
 70
     0
  0
VERTEX
  8
1
 62
    11
 10
-26.5483
 20
15.5968
 30
0
 70
     0
  0
VERTEX
  8
1
 62
    11
 10
-26.5723
 20
15.0095
 30
0
 70
     0
  0
VERTEX
  8
1
 62
    11
 10
-26.6208
 20
14.4518
 30
0
 70
     0
  0
VERTEX
  8
1
 62
    11
 10
-26.6937
 20
13.924
 30
0
 70
     0
  0
VERTEX
  8
1
 62
    11
 10
-26.7912
 20
13.426
 30
0
 70
     0
  0
VERTEX
  8
1
 62
    11
 10
-26.9132
 20
12.9578
 30
0
 70
     0
  0
VERTEX
  8
1
 62
    11
 10
-27.0598
 20
12.5196
 30
0
 70
     0
  0
VERTEX
  8
1
 62
    11
 10
-27.187
 20
12.2163
 30
0
 70
     0
  0
VERTEX
  8
1
 62
    11
 10
-27.2311
 20
12.1115
 30
0
 70
     0
  0
VERTEX
  8
1
 62
    11
 10
-27.4275
 20
11.7337
 30
0
 70
     0
  0
VERTEX
  8
1
 62
    11
 10
-27.6483
 20
11.386
 30
0
 70
     0
  0
VERTEX
  8
1
 62
    11
 10
-27.8937
 20
11.0684
 30
0
 70
     0
  0
VERTEX
  8
1
 62
    11
 10
-28.1637
 20
10.781
 30
0
 70
     0
  0
VERTEX
  8
1
 62
    11
 10
-28.4583
 20
10.5238
 30
0
 70
     0
  0
VERTEX
  8
1
 62
    11
 10
-28.7775
 20
10.2967
 30
0
 70
     0
  0
VERTEX
  8
1
 62
    11
 10
-29.1212
 20
10.0999
 30
0
 70
     0
  0
VERTEX
  8
1
 62
    11
 10
-29.4896
 20
9.93339
 30
0
 70
     0
  0
VERTEX
  8
1
 62
    11
 10
-29.8825
 20
9.79711
 30
0
 70
     0
  0
VERTEX
  8
1
 62
    11
 10
-30.3001
 20
9.69111
 30
0
 70
     0
  0
VERTEX
  8
1
 62
    11
 10
-30.7423
 20
9.61541
 30
0
 70
     0
  0
VERTEX
  8
1
 62
    11
 10
-31.209
 20
9.57002
 30
0
 70
     0
  0
VERTEX
  8
1
 62
    11
 10
-31.7004
 20
9.55495
 30
0
 70
     0
  0
SEQEND
  0
POLYLINE
  8
1
 62
    11
 66
     1
 10
0
 20
0
 30
0
 70
     0
  0
VERTEX
  8
1
 62
    11
 10
-26.4032
 20
15.9682
 30
0
 70
     0
  0
VERTEX
  8
1
 62
    11
 10
-26.4155
 20
15.3123
 30
0
 70
     0
  0
VERTEX
  8
1
 62
    11
 10
-26.4543
 20
14.6898
 30
0
 70
     0
  0
VERTEX
  8
1
 62
    11
 10
-26.5196
 20
14.1008
 30
0
 70
     0
  0
VERTEX
  8
1
 62
    11
 10
-26.6114
 20
13.5453
 30
0
 70
     0
  0
VERTEX
  8
1
 62
    11
 10
-26.7297
 20
13.0232
 30
0
 70
     0
  0
VERTEX
  8
1
 62
    11
 10
-26.8745
 20
12.5347
 30
0
 70
     0
  0
VERTEX
  8
1
 62
    11
 10
-27.0459
 20
12.0797
 30
0
 70
     0
  0
VERTEX
  8
1
 62
    11
 10
-27.2439
 20
11.6583
 30
0
 70
     0
  0
VERTEX
  8
1
 62
    11
 10
-27.4684
 20
11.2704
 30
0
 70
     0
  0
VERTEX
  8
1
 62
    11
 10
-27.7195
 20
10.9162
 30
0
 70
     0
  0
VERTEX
  8
1
 62
    11
 10
-27.9972
 20
10.5955
 30
0
 70
     0
  0
VERTEX
  8
1
 62
    11
 10
-28.3015
 20
10.3085
 30
0
 70
     0
  0
VERTEX
  8
1
 62
    11
 10
-28.6324
 20
10.0552
 30
0
 70
     0
  0
VERTEX
  8
1
 62
    11
 10
-28.9678
 20
9.84908
 30
0
 70
     0
  0
VERTEX
  8
1
 62
    11
 10
-28.9899
 20
9.83556
 30
0
 70
     0
  0
VERTEX
  8
1
 62
    11
 10
-29.3744
 20
9.65008
 30
0
 70
     0
  0
VERTEX
  8
1
 62
    11
 10
-29.7854
 20
9.49833
 30
0
 70
     0
  0
VERTEX
  8
1
 62
    11
 10
-30.223
 20
9.38033
 30
0
 70
     0
  0
VERTEX
  8
1
 62
    11
 10
-30.6872
 20
9.2961
 30
0
 70
     0
  0
VERTEX
  8
1
 62
    11
 10
-31.178
 20
9.24563
 30
0
 70
     0
  0
VERTEX
  8
1
 62
    11
 10
-31.6953
 20
9.22896
 30
0
 70
     0
  0
SEQEND
  0
POLYLINE
  8
1
 62
    11
 66
     1
 10
0
 20
0
 30
0
 70
     0
  0
VERTEX
  8
1
 62
    11
 10
-31.986
 20
12.6085
 30
0
 70
     0
  0
VERTEX
  8
1
 62
    11
 10
-32.0374
 20
12.6085
 30
0
 70
     0
  0
VERTEX
  8
1
 62
    11
 10
-32.0888
 20
12.6085
 30
0
 70
     0
  0
VERTEX
  8
1
 62
    11
 10
-32.1402
 20
12.6085
 30
0
 70
     0
  0
VERTEX
  8
1
 62
    11
 10
-32.1916
 20
12.6085
 30
0
 70
     0
  0
VERTEX
  8
1
 62
    11
 10
-32.243
 20
12.6085
 30
0
 70
     0
  0
VERTEX
  8
1
 62
    11
 10
-32.2944
 20
12.6085
 30
0
 70
     0
  0
VERTEX
  8
1
 62
    11
 10
-32.3458
 20
12.6085
 30
0
 70
     0
  0
VERTEX
  8
1
 62
    11
 10
-32.3972
 20
12.6085
 30
0
 70
     0
  0
VERTEX
  8
1
 62
    11
 10
-32.4486
 20
12.6085
 30
0
 70
     0
  0
VERTEX
  8
1
 62
    11
 10
-32.5
 20
12.6085
 30
0
 70
     0
  0
SEQEND
  0
POLYLINE
  8
1
 62
    11
 66
     1
 10
0
 20
0
 30
0
 70
     0
  0
VERTEX
  8
1
 62
    11
 10
-31.8502
 20
11.1504
 30
0
 70
     0
  0
VERTEX
  8
1
 62
    11
 10
-31.9151
 20
11.1504
 30
0
 70
     0
  0
VERTEX
  8
1
 62
    11
 10
-31.9801
 20
11.1504
 30
0
 70
     0
  0
VERTEX
  8
1
 62
    11
 10
-32.0451
 20
11.1504
 30
0
 70
     0
  0
VERTEX
  8
1
 62
    11
 10
-32.1101
 20
11.1504
 30
0
 70
     0
  0
VERTEX
  8
1
 62
    11
 10
-32.1751
 20
11.1504
 30
0
 70
     0
  0
VERTEX
  8
1
 62
    11
 10
-32.2401
 20
11.1504
 30
0
 70
     0
  0
VERTEX
  8
1
 62
    11
 10
-32.305
 20
11.1504
 30
0
 70
     0
  0
VERTEX
  8
1
 62
    11
 10
-32.37
 20
11.1504
 30
0
 70
     0
  0
VERTEX
  8
1
 62
    11
 10
-32.435
 20
11.1504
 30
0
 70
     0
  0
VERTEX
  8
1
 62
    11
 10
-32.5
 20
11.1504
 30
0
 70
     0
  0
SEQEND
  0
POLYLINE
  8
1
 62
    11
 66
     1
 10
0
 20
0
 30
0
 70
     0
  0
VERTEX
  8
1
 62
    11
 10
-31.7522
 20
10.1722
 30
0
 70
     0
  0
VERTEX
  8
1
 62
    11
 10
-31.827
 20
10.1722
 30
0
 70
     0
  0
VERTEX
  8
1
 62
    11
 10
-31.9018
 20
10.1722
 30
0
 70
     0
  0
VERTEX
  8
1
 62
    11
 10
-31.9766
 20
10.1722
 30
0
 70
     0
  0
VERTEX
  8
1
 62
    11
 10
-32.0513
 20
10.1722
 30
0
 70
     0
  0
VERTEX
  8
1
 62
    11
 10
-32.1261
 20
10.1722
 30
0
 70
     0
  0
VERTEX
  8
1
 62
    11
 10
-32.2009
 20
10.1722
 30
0
 70
     0
  0
VERTEX
  8
1
 62
    11
 10
-32.2757
 20
10.1722
 30
0
 70
     0
  0
VERTEX
  8
1
 62
    11
 10
-32.3504
 20
10.1722
 30
0
 70
     0
  0
VERTEX
  8
1
 62
    11
 10
-32.4252
 20
10.1722
 30
0
 70
     0
  0
VERTEX
  8
1
 62
    11
 10
-32.5
 20
10.1722
 30
0
 70
     0
  0
SEQEND
  0
POLYLINE
  8
1
 62
    11
 66
     1
 10
0
 20
0
 30
0
 70
     0
  0
VERTEX
  8
1
 62
    11
 10
-31.7002
 20
9.55373
 30
0
 70
     0
  0
VERTEX
  8
1
 62
    11
 10
-31.7802
 20
9.55373
 30
0
 70
     0
  0
VERTEX
  8
1
 62
    11
 10
-31.8602
 20
9.55373
 30
0
 70
     0
  0
VERTEX
  8
1
 62
    11
 10
-31.9401
 20
9.55373
 30
0
 70
     0
  0
VERTEX
  8
1
 62
    11
 10
-32.0201
 20
9.55373
 30
0
 70
     0
  0
VERTEX
  8
1
 62
    11
 10
-32.1001
 20
9.55373
 30
0
 70
     0
  0
VERTEX
  8
1
 62
    11
 10
-32.1801
 20
9.55373
 30
0
 70
     0
  0
VERTEX
  8
1
 62
    11
 10
-32.2601
 20
9.55374
 30
0
 70
     0
  0
VERTEX
  8
1
 62
    11
 10
-32.34
 20
9.55374
 30
0
 70
     0
  0
VERTEX
  8
1
 62
    11
 10
-32.42
 20
9.55374
 30
0
 70
     0
  0
VERTEX
  8
1
 62
    11
 10
-32.5
 20
9.55374
 30
0
 70
     0
  0
SEQEND
  0
POLYLINE
  8
1
 62
    11
 66
     1
 10
0
 20
0
 30
0
 70
     0
  0
VERTEX
  8
1
 62
    11
 10
-31.6951
 20
9.22824
 30
0
 70
     0
  0
VERTEX
  8
1
 62
    11
 10
-31.7756
 20
9.22825
 30
0
 70
     0
  0
VERTEX
  8
1
 62
    11
 10
-31.8561
 20
9.22825
 30
0
 70
     0
  0
VERTEX
  8
1
 62
    11
 10
-31.9366
 20
9.22825
 30
0
 70
     0
  0
VERTEX
  8
1
 62
    11
 10
-32.0171
 20
9.22826
 30
0
 70
     0
  0
VERTEX
  8
1
 62
    11
 10
-32.0976
 20
9.22826
 30
0
 70
     0
  0
VERTEX
  8
1
 62
    11
 10
-32.1781
 20
9.22826
 30
0
 70
     0
  0
VERTEX
  8
1
 62
    11
 10
-32.2585
 20
9.22826
 30
0
 70
     0
  0
VERTEX
  8
1
 62
    11
 10
-32.339
 20
9.22826
 30
0
 70
     0
  0
VERTEX
  8
1
 62
    11
 10
-32.4195
 20
9.22826
 30
0
 70
     0
  0
VERTEX
  8
1
 62
    11
 10
-32.5
 20
9.22826
 30
0
 70
     0
  0
SEQEND
  0
POLYLINE
  8
1
 62
     9
 66
     1
 10
0
 20
0
 30
0
 70
     0
  0
VERTEX
  8
1
 62
     9
 10
-31.5
 20
9.20173
 30
0
 70
     0
  0
VERTEX
  8
1
 62
     9
 10
-31.5
 20
9.2358
 30
0
 70
     0
  0
VERTEX
  8
1
 62
     9
 10
-31.5
 20
9.56667
 30
0
 70
     0
  0
VERTEX
  8
1
 62
     9
 10
-31.5
 20
10.1941
 30
0
 70
     0
  0
VERTEX
  8
1
 62
     9
 10
-31.5
 20
11.1785
 30
0
 70
     0
  0
VERTEX
  8
1
 62
     9
 10
-31.5
 20
11.2518
 30
0
 70
     0
  0
VERTEX
  8
1
 62
     9
 10
-31.5
 20
12.6266
 30
0
 70
     0
  0
SEQEND
  0
POLYLINE
  8
1
 62
     9
 66
     1
 10
0
 20
0
 30
0
 70
     0
  0
VERTEX
  8
1
 62
     9
 10
-30.5
 20
9.30672
 30
0
 70
     0
  0
VERTEX
  8
1
 62
     9
 10
-30.5
 20
9.33033
 30
0
 70
     0
  0
VERTEX
  8
1
 62
     9
 10
-30.5
 20
9.66187
 30
0
 70
     0
  0
VERTEX
  8
1
 62
     9
 10
-30.5
 20
10.2945
 30
0
 70
     0
  0
VERTEX
  8
1
 62
     9
 10
-30.5
 20
10.3016
 30
0
 70
     0
  0
VERTEX
  8
1
 62
     9
 10
-30.5
 20
11.3215
 30
0
 70
     0
  0
VERTEX
  8
1
 62
     9
 10
-30.5
 20
11.3252
 30
0
 70
     0
  0
VERTEX
  8
1
 62
     9
 10
-30.5
 20
12.1335
 30
0
 70
     0
  0
VERTEX
  8
1
 62
     9
 10
-30.5
 20
12.7208
 30
0
 70
     0
  0
VERTEX
  8
1
 62
     9
 10
-30.5
 20
12.8068
 30
0
 70
     0
  0
SEQEND
  0
POLYLINE
  8
1
 62
     9
 66
     1
 10
0
 20
0
 30
0
 70
     0
  0
VERTEX
  8
1
 62
     9
 10
-29.5
 20
9.60187
 30
0
 70
     0
  0
VERTEX
  8
1
 62
     9
 10
-29.5
 20
9.60373
 30
0
 70
     0
  0
VERTEX
  8
1
 62
     9
 10
-29.5
 20
9.93388
 30
0
 70
     0
  0
VERTEX
  8
1
 62
     9
 10
-29.5
 20
9.95493
 30
0
 70
     0
  0
VERTEX
  8
1
 62
     9
 10
-29.5
 20
10.6193
 30
0
 70
     0
  0
VERTEX
  8
1
 62
     9
 10
-29.5
 20
10.75
 30
0
 70
     0
  0
VERTEX
  8
1
 62
     9
 10
-29.5
 20
11.3856
 30
0
 70
     0
  0
VERTEX
  8
1
 62
     9
 10
-29.5
 20
11.728
 30
0
 70
     0
  0
VERTEX
  8
1
 62
     9
 10
-29.5
 20
11.9135
 30
0
 70
     0
  0
VERTEX
  8
1
 62
     9
 10
-29.5
 20
12.3759
 30
0
 70
     0
  0
VERTEX
  8
1
 62
     9
 10
-29.5
 20
12.7574
 30
0
 70
     0
  0
VERTEX
  8
1
 62
     9
 10
-29.5
 20
13.0763
 30
0
 70
     0
  0
VERTEX
  8
1
 62
     9
 10
-29.5
 20
13.3452
 30
0
 70
     0
  0
VERTEX
  8
1
 62
     9
 10
-29.5
 20
13.364
 30
0
 70
     0
  0
SEQEND
  0
POLYLINE
  8
1
 62
     9
 66
     1
 10
0
 20
0
 30
0
 70
     0
  0
VERTEX
  8
1
 62
     9
 10
-28.5
 20
10.2021
 30
0
 70
     0
  0
VERTEX
  8
1
 62
     9
 10
-28.5
 20
10.1557
 30
0
 70
     0
  0
VERTEX
  8
1
 62
     9
 10
-28.5
 20
10.4971
 30
0
 70
     0
  0
VERTEX
  8
1
 62
     9
 10
-28.5
 20
10.5759
 30
0
 70
     0
  0
VERTEX
  8
1
 62
     9
 10
-28.5
 20
11.1404
 30
0
 70
     0
  0
VERTEX
  8
1
 62
     9
 10
-28.5
 20
11.2844
 30
0
 70
     0
  0
VERTEX
  8
1
 62
     9
 10
-28.5
 20
11.6377
 30
0
 70
     0
  0
VERTEX
  8
1
 62
     9
 10
-28.5
 20
12.0763
 30
0
 70
     0
  0
VERTEX
  8
1
 62
     9
 10
-28.5
 20
12.4639
 30
0
 70
     0
  0
VERTEX
  8
1
 62
     9
 10
-28.5
 20
12.6811
 30
0
 70
     0
  0
VERTEX
  8
1
 62
     9
 10
-28.5
 20
12.821
 30
0
 70
     0
  0
VERTEX
  8
1
 62
     9
 10
-28.5
 20
13.1569
 30
0
 70
     0
  0
VERTEX
  8
1
 62
     9
 10
-28.5
 20
13.4634
 30
0
 70
     0
  0
VERTEX
  8
1
 62
     9
 10
-28.5
 20
13.7472
 30
0
 70
     0
  0
VERTEX
  8
1
 62
     9
 10
-28.5
 20
14.014
 30
0
 70
     0
  0
VERTEX
  8
1
 62
     9
 10
-28.5
 20
14.269
 30
0
 70
     0
  0
VERTEX
  8
1
 62
     9
 10
-28.5
 20
14.5171
 30
0
 70
     0
  0
VERTEX
  8
1
 62
     9
 10
-28.5
 20
14.7634
 30
0
 70
     0
  0
SEQEND
  0
POLYLINE
  8
1
 62
     9
 66
     1
 10
0
 20
0
 30
0
 70
     0
  0
VERTEX
  8
1
 62
     9
 10
-27.5
 20
11.3777
 30
0
 70
     0
  0
VERTEX
  8
1
 62
     9
 10
-27.5
 20
11.2993
 30
0
 70
     0
  0
VERTEX
  8
1
 62
     9
 10
-27.5
 20
11.2225
 30
0
 70
     0
  0
VERTEX
  8
1
 62
     9
 10
-27.5
 20
11.2907
 30
0
 70
     0
  0
VERTEX
  8
1
 62
     9
 10
-27.5
 20
11.6206
 30
0
 70
     0
  0
VERTEX
  8
1
 62
     9
 10
-27.5
 20
11.7779
 30
0
 70
     0
  0
VERTEX
  8
1
 62
     9
 10
-27.5
 20
12.2373
 30
0
 70
     0
  0
VERTEX
  8
1
 62
     9
 10
-27.5
 20
12.6629
 30
0
 70
     0
  0
VERTEX
  8
1
 62
     9
 10
-27.5
 20
12.7866
 30
0
 70
     0
  0
VERTEX
  8
1
 62
     9
 10
-27.5
 20
13.079
 30
0
 70
     0
  0
VERTEX
  8
1
 62
     9
 10
-27.5
 20
13.4845
 30
0
 70
     0
  0
VERTEX
  8
1
 62
     9
 10
-27.5
 20
13.88
 30
0
 70
     0
  0
VERTEX
  8
1
 62
     9
 10
-27.5
 20
14.2722
 30
0
 70
     0
  0
VERTEX
  8
1
 62
     9
 10
-27.5
 20
14.6673
 30
0
 70
     0
  0
VERTEX
  8
1
 62
     9
 10
-27.5
 20
15.0723
 30
0
 70
     0
  0
SEQEND
  0
POLYLINE
  8
1
 62
     9
 66
     1
 10
0
 20
0
 30
0
 70
     0
  0
VERTEX
  8
1
 62
     9
 10
-26.5
 20
16.2061
 30
0
 70
     0
  0
VERTEX
  8
1
 62
     9
 10
-26.5
 20
15.5094
 30
0
 70
     0
  0
VERTEX
  8
1
 62
     9
 10
-26.5
 20
14.7952
 30
0
 70
     0
  0
VERTEX
  8
1
 62
     9
 10
-26.5
 20
14.2493
 30
0
 70
     0
  0
VERTEX
  8
1
 62
     9
 10
-26.5
 20
14.6229
 30
0
 70
     0
  0
VERTEX
  8
1
 62
     9
 10
-26.5
 20
15.1444
 30
0
 70
     0
  0
VERTEX
  8
1
 62
     9
 10
-26.5
 20
15.7116
 30
0
 70
     0
  0
SEQEND
  0
POLYLINE
  8
1
 62
    14
 66
     1
 10
0
 20
0
 30
0
 70
     0
  0
VERTEX
  8
1
 62
    14
 10
-31.697
 20
9.35454
 30
0
 70
     0
  0
VERTEX
  8
1
 62
    14
 10
-31.1881
 20
9.35454
 30
0
 70
     0
  0
VERTEX
  8
1
 62
    14
 10
-30.6969
 20
9.35454
 30
0
 70
     0
  0
VERTEX
  8
1
 62
    14
 10
-30.3664
 20
9.35454
 30
0
 70
     0
  0
VERTEX
  8
1
 62
    14
 10
-30.2548
 20
9.35454
 30
0
 70
     0
  0
VERTEX
  8
1
 62
    14
 10
-30.2514
 20
9.35454
 30
0
 70
     0
  0
SEQEND
  0
POLYLINE
  8
1
 62
    14
 66
     1
 10
0
 20
0
 30
0
 70
     0
  0
VERTEX
  8
1
 62
    14
 10
-31.7704
 20
10.3545
 30
0
 70
     0
  0
VERTEX
  8
1
 62
    14
 10
-31.3427
 20
10.3545
 30
0
 70
     0
  0
VERTEX
  8
1
 62
    14
 10
-30.9275
 20
10.3545
 30
0
 70
     0
  0
VERTEX
  8
1
 62
    14
 10
-30.5195
 20
10.3545
 30
0
 70
     0
  0
VERTEX
  8
1
 62
    14
 10
-30.2767
 20
10.3545
 30
0
 70
     0
  0
VERTEX
  8
1
 62
    14
 10
-30.1127
 20
10.3545
 30
0
 70
     0
  0
VERTEX
  8
1
 62
    14
 10
-29.6991
 20
10.3545
 30
0
 70
     0
  0
VERTEX
  8
1
 62
    14
 10
-29.2708
 20
10.3545
 30
0
 70
     0
  0
VERTEX
  8
1
 62
    14
 10
-28.817
 20
10.3545
 30
0
 70
     0
  0
VERTEX
  8
1
 62
    14
 10
-28.7009
 20
10.3545
 30
0
 70
     0
  0
VERTEX
  8
1
 62
    14
 10
-28.335
 20
10.3545
 30
0
 70
     0
  0
VERTEX
  8
1
 62
    14
 10
-28.2512
 20
10.3545
 30
0
 70
     0
  0
VERTEX
  8
1
 62
    14
 10
-28.3164
 20
10.3545
 30
0
 70
     0
  0
SEQEND
  0
POLYLINE
  8
1
 62
    14
 66
     1
 10
0
 20
0
 30
0
 70
     0
  0
VERTEX
  8
1
 62
    14
 10
-31.8693
 20
11.3545
 30
0
 70
     0
  0
VERTEX
  8
1
 62
    14
 10
-31.5162
 20
11.3545
 30
0
 70
     0
  0
VERTEX
  8
1
 62
    14
 10
-31.1742
 20
11.3545
 30
0
 70
     0
  0
VERTEX
  8
1
 62
    14
 10
-30.84
 20
11.3545
 30
0
 70
     0
  0
VERTEX
  8
1
 62
    14
 10
-30.5101
 20
11.3545
 30
0
 70
     0
  0
VERTEX
  8
1
 62
    14
 10
-30.3851
 20
11.3545
 30
0
 70
     0
  0
VERTEX
  8
1
 62
    14
 10
-30.1775
 20
11.3545
 30
0
 70
     0
  0
VERTEX
  8
1
 62
    14
 10
-29.8357
 20
11.3545
 30
0
 70
     0
  0
VERTEX
  8
1
 62
    14
 10
-29.4801
 20
11.3545
 30
0
 70
     0
  0
VERTEX
  8
1
 62
    14
 10
-29.1018
 20
11.3545
 30
0
 70
     0
  0
VERTEX
  8
1
 62
    14
 10
-28.6885
 20
11.3545
 30
0
 70
     0
  0
VERTEX
  8
1
 62
    14
 10
-28.4279
 20
11.3545
 30
0
 70
     0
  0
VERTEX
  8
1
 62
    14
 10
-28.2094
 20
11.3545
 30
0
 70
     0
  0
VERTEX
  8
1
 62
    14
 10
-27.6738
 20
11.3545
 30
0
 70
     0
  0
VERTEX
  8
1
 62
    14
 10
-27.5994
 20
11.3545
 30
0
 70
     0
  0
VERTEX
  8
1
 62
    14
 10
-27.4174
 20
11.3545
 30
0
 70
     0
  0
VERTEX
  8
1
 62
    14
 10
-27.5104
 20
11.3545
 30
0
 70
     0
  0
SEQEND
  0
POLYLINE
  8
1
 62
    14
 66
     1
 10
0
 20
0
 30
0
 70
     0
  0
VERTEX
  8
1
 62
    14
 10
-31.9624
 20
12.3545
 30
0
 70
     0
  0
VERTEX
  8
1
 62
    14
 10
-31.6738
 20
12.3545
 30
0
 70
     0
  0
VERTEX
  8
1
 62
    14
 10
-31.3947
 20
12.3545
 30
0
 70
     0
  0
VERTEX
  8
1
 62
    14
 10
-31.1226
 20
12.3545
 30
0
 70
     0
  0
VERTEX
  8
1
 62
    14
 10
-30.8554
 20
12.3545
 30
0
 70
     0
  0
VERTEX
  8
1
 62
    14
 10
-30.5905
 20
12.3545
 30
0
 70
     0
  0
VERTEX
  8
1
 62
    14
 10
-30.3252
 20
12.3545
 30
0
 70
     0
  0
VERTEX
  8
1
 62
    14
 10
-30.0558
 20
12.3545
 30
0
 70
     0
  0
VERTEX
  8
1
 62
    14
 10
-29.7777
 20
12.3545
 30
0
 70
     0
  0
VERTEX
  8
1
 62
    14
 10
-29.4846
 20
12.3545
 30
0
 70
     0
  0
VERTEX
  8
1
 62
    14
 10
-29.1674
 20
12.3545
 30
0
 70
     0
  0
VERTEX
  8
1
 62
    14
 10
-28.8121
 20
12.3545
 30
0
 70
     0
  0
VERTEX
  8
1
 62
    14
 10
-28.7478
 20
12.3545
 30
0
 70
     0
  0
VERTEX
  8
1
 62
    14
 10
-28.3511
 20
12.3545
 30
0
 70
     0
  0
VERTEX
  8
1
 62
    14
 10
-27.7404
 20
12.3545
 30
0
 70
     0
  0
VERTEX
  8
1
 62
    14
 10
-27.6958
 20
12.3545
 30
0
 70
     0
  0
VERTEX
  8
1
 62
    14
 10
-27.1287
 20
12.3545
 30
0
 70
     0
  0
VERTEX
  8
1
 62
    14
 10
-26.9398
 20
12.3545
 30
0
 70
     0
  0
VERTEX
  8
1
 62
    14
 10
-27.0467
 20
12.3545
 30
0
 70
     0
  0
SEQEND
  0
POLYLINE
  8
1
 62
    14
 66
     1
 10
0
 20
0
 30
0
 70
     0
  0
VERTEX
  8
1
 62
    14
 10
-29.5095
 20
13.3545
 30
0
 70
     0
  0
VERTEX
  8
1
 62
    14
 10
-29.2089
 20
13.3545
 30
0
 70
     0
  0
VERTEX
  8
1
 62
    14
 10
-28.8232
 20
13.3545
 30
0
 70
     0
  0
VERTEX
  8
1
 62
    14
 10
-28.2695
 20
13.3545
 30
0
 70
     0
  0
VERTEX
  8
1
 62
    14
 10
-28.1445
 20
13.3545
 30
0
 70
     0
  0
VERTEX
  8
1
 62
    14
 10
-27.3051
 20
13.3545
 30
0
 70
     0
  0
VERTEX
  8
1
 62
    14
 10
-26.8072
 20
13.3545
 30
0
 70
     0
  0
VERTEX
  8
1
 62
    14
 10
-26.6518
 20
13.3545
 30
0
 70
     0
  0
VERTEX
  8
1
 62
    14
 10
-26.7633
 20
13.3545
 30
0
 70
     0
  0
SEQEND
  0
POLYLINE
  8
1
 62
    14
 66
     1
 10
0
 20
0
 30
0
 70
     0
  0
VERTEX
  8
1
 62
    14
 10
-28.8886
 20
14.3545
 30
0
 70
     0
  0
VERTEX
  8
1
 62
    14
 10
-27.86
 20
14.3545
 30
0
 70
     0
  0
VERTEX
  8
1
 62
    14
 10
-27.0943
 20
14.3545
 30
0
 70
     0
  0
VERTEX
  8
1
 62
    14
 10
-26.934
 20
14.3545
 30
0
 70
     0
  0
VERTEX
  8
1
 62
    14
 10
-26.6297
 20
14.3545
 30
0
 70
     0
  0
VERTEX
  8
1
 62
    14
 10
-26.4883
 20
14.3545
 30
0
 70
     0
  0
VERTEX
  8
1
 62
    14
 10
-26.5989
 20
14.3545
 30
0
 70
     0
  0
SEQEND
  0
POLYLINE
  8
1
 62
    14
 66
     1
 10
0
 20
0
 30
0
 70
     0
  0
VERTEX
  8
1
 62
    14
 10
-26.8863
 20
15.3545
 30
0
 70
     0
  0
VERTEX
  8
1
 62
    14
 10
-26.5519
 20
15.3545
 30
0
 70
     0
  0
VERTEX
  8
1
 62
    14
 10
-26.4111
 20
15.3545
 30
0
 70
     0
  0
VERTEX
  8
1
 62
    14
 10
-26.4279
 20
15.3545
 30
0
 70
     0
  0
VERTEX
  8
1
 62
    14
 10
-26.5231
 20
15.3545
 30
0
 70
     0
  0
SEQEND
  0
POLYLINE
  8
1
 62
    14
 66
     1
 10
0
 20
0
 30
0
 70
     0
  0
VERTEX
  8
1
 62
    14
 10
-31.6916
 20
9.35454
 30
0
 70
     0
  0
VERTEX
  8
1
 62
    14
 10
-31.7725
 20
9.35454
 30
0
 70
     0
  0
VERTEX
  8
1
 62
    14
 10
-31.8533
 20
9.35454
 30
0
 70
     0
  0
VERTEX
  8
1
 62
    14
 10
-31.9342
 20
9.35454
 30
0
 70
     0
  0
VERTEX
  8
1
 62
    14
 10
-32.015
 20
9.35454
 30
0
 70
     0
  0
VERTEX
  8
1
 62
    14
 10
-32.0958
 20
9.35454
 30
0
 70
     0
  0
VERTEX
  8
1
 62
    14
 10
-32.1767
 20
9.35454
 30
0
 70
     0
  0
VERTEX
  8
1
 62
    14
 10
-32.2575
 20
9.35454
 30
0
 70
     0
  0
VERTEX
  8
1
 62
    14
 10
-32.3383
 20
9.35454
 30
0
 70
     0
  0
VERTEX
  8
1
 62
    14
 10
-32.4192
 20
9.35454
 30
0
 70
     0
  0
VERTEX
  8
1
 62
    14
 10
-32.5
 20
9.35454
 30
0
 70
     0
  0
SEQEND
  0
POLYLINE
  8
1
 62
    14
 66
     1
 10
0
 20
0
 30
0
 70
     0
  0
VERTEX
  8
1
 62
    14
 10
-31.7703
 20
10.3545
 30
0
 70
     0
  0
VERTEX
  8
1
 62
    14
 10
-31.8433
 20
10.3545
 30
0
 70
     0
  0
VERTEX
  8
1
 62
    14
 10
-31.9163
 20
10.3545
 30
0
 70
     0
  0
VERTEX
  8
1
 62
    14
 10
-31.9892
 20
10.3545
 30
0
 70
     0
  0
VERTEX
  8
1
 62
    14
 10
-32.0622
 20
10.3545
 30
0
 70
     0
  0
VERTEX
  8
1
 62
    14
 10
-32.1352
 20
10.3545
 30
0
 70
     0
  0
VERTEX
  8
1
 62
    14
 10
-32.2081
 20
10.3545
 30
0
 70
     0
  0
VERTEX
  8
1
 62
    14
 10
-32.2811
 20
10.3545
 30
0
 70
     0
  0
VERTEX
  8
1
 62
    14
 10
-32.3541
 20
10.3545
 30
0
 70
     0
  0
VERTEX
  8
1
 62
    14
 10
-32.427
 20
10.3545
 30
0
 70
     0
  0
VERTEX
  8
1
 62
    14
 10
-32.5
 20
10.3545
 30
0
 70
     0
  0
SEQEND
  0
POLYLINE
  8
1
 62
    14
 66
     1
 10
0
 20
0
 30
0
 70
     0
  0
VERTEX
  8
1
 62
    14
 10
-31.8699
 20
11.3545
 30
0
 70
     0
  0
VERTEX
  8
1
 62
    14
 10
-31.9329
 20
11.3545
 30
0
 70
     0
  0
VERTEX
  8
1
 62
    14
 10
-31.996
 20
11.3545
 30
0
 70
     0
  0
VERTEX
  8
1
 62
    14
 10
-32.059
 20
11.3545
 30
0
 70
     0
  0
VERTEX
  8
1
 62
    14
 10
-32.122
 20
11.3545
 30
0
 70
     0
  0
VERTEX
  8
1
 62
    14
 10
-32.185
 20
11.3545
 30
0
 70
     0
  0
VERTEX
  8
1
 62
    14
 10
-32.248
 20
11.3545
 30
0
 70
     0
  0
VERTEX
  8
1
 62
    14
 10
-32.311
 20
11.3545
 30
0
 70
     0
  0
VERTEX
  8
1
 62
    14
 10
-32.374
 20
11.3545
 30
0
 70
     0
  0
VERTEX
  8
1
 62
    14
 10
-32.437
 20
11.3545
 30
0
 70
     0
  0
VERTEX
  8
1
 62
    14
 10
-32.5
 20
11.3545
 30
0
 70
     0
  0
SEQEND
  0
POLYLINE
  8
1
 62
    14
 66
     1
 10
0
 20
0
 30
0
 70
     0
  0
VERTEX
  8
1
 62
    14
 10
-31.9631
 20
12.3545
 30
0
 70
     0
  0
VERTEX
  8
1
 62
    14
 10
-32.0168
 20
12.3545
 30
0
 70
     0
  0
VERTEX
  8
1
 62
    14
 10
-32.0705
 20
12.3545
 30
0
 70
     0
  0
VERTEX
  8
1
 62
    14
 10
-32.1242
 20
12.3545
 30
0
 70
     0
  0
VERTEX
  8
1
 62
    14
 10
-32.1779
 20
12.3545
 30
0
 70
     0
  0
VERTEX
  8
1
 62
    14
 10
-32.2315
 20
12.3545
 30
0
 70
     0
  0
VERTEX
  8
1
 62
    14
 10
-32.2852
 20
12.3545
 30
0
 70
     0
  0
VERTEX
  8
1
 62
    14
 10
-32.3389
 20
12.3545
 30
0
 70
     0
  0
VERTEX
  8
1
 62
    14
 10
-32.3926
 20
12.3545
 30
0
 70
     0
  0
VERTEX
  8
1
 62
    14
 10
-32.4463
 20
12.3545
 30
0
 70
     0
  0
VERTEX
  8
1
 62
    14
 10
-32.5
 20
12.3545
 30
0
 70
     0
  0
SEQEND
  0
POLYLINE
  8
1
 62
    15
 66
     1
 10
0
 20
0
 30
0
 70
     0
  0
VERTEX
  8
1
 62
    15
 10
-33.282
 20
9.16836
 30
0
 70
     0
  0
VERTEX
  8
1
 62
    15
 10
-33.2602
 20
9.17232
 30
0
 70
     0
  0
VERTEX
  8
1
 62
    15
 10
-33.2192
 20
9.245
 30
0
 70
     0
  0
VERTEX
  8
1
 62
    15
 10
-33.1655
 20
9.38407
 30
0
 70
     0
  0
VERTEX
  8
1
 62
    15
 10
-33.0989
 20
9.58813
 30
0
 70
     0
  0
VERTEX
  8
1
 62
    15
 10
-33.0204
 20
9.85519
 30
0
 70
     0
  0
VERTEX
  8
1
 62
    15
 10
-32.9317
 20
10.183
 30
0
 70
     0
  0
VERTEX
  8
1
 62
    15
 10
-32.8348
 20
10.5687
 30
0
 70
     0
  0
VERTEX
  8
1
 62
    15
 10
-32.7336
 20
11.0099
 30
0
 70
     0
  0
VERTEX
  8
1
 62
    15
 10
-32.6386
 20
11.5061
 30
0
 70
     0
  0
VERTEX
  8
1
 62
    15
 10
-32.5614
 20
12.0573
 30
0
 70
     0
  0
VERTEX
  8
1
 62
    15
 10
-32.514
 20
12.6635
 30
0
 70
     0
  0
SEQEND
  0
POLYLINE
  8
1
 62
    15
 66
     1
 10
0
 20
0
 30
0
 70
     0
  0
VERTEX
  8
1
 62
    15
 10
-32.5
 20
9.16837
 30
0
 70
     0
  0
VERTEX
  8
1
 62
    15
 10
-32.5
 20
9.17228
 30
0
 70
     0
  0
VERTEX
  8
1
 62
    15
 10
-32.5
 20
9.24488
 30
0
 70
     0
  0
VERTEX
  8
1
 62
    15
 10
-32.5
 20
9.38387
 30
0
 70
     0
  0
VERTEX
  8
1
 62
    15
 10
-32.5
 20
9.58787
 30
0
 70
     0
  0
VERTEX
  8
1
 62
    15
 10
-32.5
 20
9.85489
 30
0
 70
     0
  0
VERTEX
  8
1
 62
    15
 10
-32.5
 20
10.1827
 30
0
 70
     0
  0
VERTEX
  8
1
 62
    15
 10
-32.5
 20
10.5684
 30
0
 70
     0
  0
VERTEX
  8
1
 62
    15
 10
-32.5
 20
11.0098
 30
0
 70
     0
  0
VERTEX
  8
1
 62
    15
 10
-32.5
 20
11.5061
 30
0
 70
     0
  0
VERTEX
  8
1
 62
    15
 10
-32.5
 20
12.0574
 30
0
 70
     0
  0
VERTEX
  8
1
 62
    15
 10
-32.5
 20
12.6635
 30
0
 70
     0
  0
SEQEND
  0
POLYLINE
  8
1
 62
    15
 66
     1
 10
0
 20
0
 30
0
 70
     0
  0
VERTEX
  8
1
 62
    15
 10
-32.514
 20
12.6635
 30
0
 70
     0
  0
VERTEX
  8
1
 62
    15
 10
-32.5126
 20
12.6635
 30
0
 70
     0
  0
VERTEX
  8
1
 62
    15
 10
-32.5112
 20
12.6635
 30
0
 70
     0
  0
VERTEX
  8
1
 62
    15
 10
-32.5098
 20
12.6635
 30
0
 70
     0
  0
VERTEX
  8
1
 62
    15
 10
-32.5084
 20
12.6635
 30
0
 70
     0
  0
VERTEX
  8
1
 62
    15
 10
-32.507
 20
12.6635
 30
0
 70
     0
  0
VERTEX
  8
1
 62
    15
 10
-32.5056
 20
12.6635
 30
0
 70
     0
  0
VERTEX
  8
1
 62
    15
 10
-32.5042
 20
12.6635
 30
0
 70
     0
  0
VERTEX
  8
1
 62
    15
 10
-32.5028
 20
12.6635
 30
0
 70
     0
  0
VERTEX
  8
1
 62
    15
 10
-32.5014
 20
12.6635
 30
0
 70
     0
  0
VERTEX
  8
1
 62
    15
 10
-32.5
 20
12.6635
 30
0
 70
     0
  0
SEQEND
  0
POLYLINE
  8
1
 62
     3
 66
     1
 10
0
 20
0
 30
0
 70
     0
  0
VERTEX
  8
1
 62
     3
 10
-32.887
 20
19.4625
 30
0
 70
     0
  0
VERTEX
  8
1
 62
     3
 10
-32.8929
 20
18.7996
 30
0
 70
     0
  0
VERTEX
  8
1
 62
     3
 10
-32.8962
 20
18.1707
 30
0
 70
     0
  0
VERTEX
  8
1
 62
     3
 10
-32.897
 20
17.5758
 30
0
 70
     0
  0
VERTEX
  8
1
 62
     3
 10
-32.8951
 20
17.0149
 30
0
 70
     0
  0
VERTEX
  8
1
 62
     3
 10
-32.8907
 20
16.488
 30
0
 70
     0
  0
VERTEX
  8
1
 62
     3
 10
-32.8837
 20
15.9951
 30
0
 70
     0
  0
VERTEX
  8
1
 62
     3
 10
-32.8741
 20
15.5361
 30
0
 70
     0
  0
VERTEX
  8
1
 62
     3
 10
-32.8619
 20
15.1112
 30
0
 70
     0
  0
VERTEX
  8
1
 62
     3
 10
-32.8471
 20
14.7202
 30
0
 70
     0
  0
VERTEX
  8
1
 62
     3
 10
-32.8298
 20
14.3633
 30
0
 70
     0
  0
VERTEX
  8
1
 62
     3
 10
-32.8098
 20
14.0403
 30
0
 70
     0
  0
VERTEX
  8
1
 62
     3
 10
-32.7873
 20
13.7514
 30
0
 70
     0
  0
VERTEX
  8
1
 62
     3
 10
-32.7622
 20
13.4964
 30
0
 70
     0
  0
VERTEX
  8
1
 62
     3
 10
-32.7345
 20
13.2754
 30
0
 70
     0
  0
VERTEX
  8
1
 62
     3
 10
-32.7042
 20
13.0885
 30
0
 70
     0
  0
VERTEX
  8
1
 62
     3
 10
-32.6713
 20
12.9355
 30
0
 70
     0
  0
VERTEX
  8
1
 62
     3
 10
-32.6359
 20
12.8165
 30
0
 70
     0
  0
VERTEX
  8
1
 62
     3
 10
-32.5978
 20
12.7315
 30
0
 70
     0
  0
VERTEX
  8
1
 62
     3
 10
-32.5572
 20
12.6805
 30
0
 70
     0
  0
VERTEX
  8
1
 62
     3
 10
-32.514
 20
12.6635
 30
0
 70
     0
  0
SEQEND
  0
POLYLINE
  8
1
 62
     3
 66
     1
 10
0
 20
0
 30
0
 70
     0
  0
VERTEX
  8
1
 62
     3
 10
-38.4908
 20
16.227
 30
0
 70
     0
  0
VERTEX
  8
1
 62
     3
 10
-38.4122
 20
16.4053
 30
0
 70
     0
  0
VERTEX
  8
1
 62
     3
 10
-37.8951
 20
16.8905
 30
0
 70
     0
  0
VERTEX
  8
1
 62
     3
 10
-37.0614
 20
17.4385
 30
0
 70
     0
  0
VERTEX
  8
1
 62
     3
 10
-35.9273
 20
18.0507
 30
0
 70
     0
  0
VERTEX
  8
1
 62
     3
 10
-34.5224
 20
18.7274
 30
0
 70
     0
  0
VERTEX
  8
1
 62
     3
 10
-32.887
 20
19.4625
 30
0
 70
     0
  0
SEQEND
  0
POLYLINE
  8
1
 62
     3
 66
     1
 10
0
 20
0
 30
0
 70
     0
  0
VERTEX
  8
1
 62
     3
 10
-33.2772
 20
9.19401
 30
0
 70
     0
  0
VERTEX
  8
1
 62
     3
 10
-33.2602
 20
9.17232
 30
0
 70
     0
  0
VERTEX
  8
1
 62
     3
 10
-33.1655
 20
9.38407
 30
0
 70
     0
  0
VERTEX
  8
1
 62
     3
 10
-33.0204
 20
9.85518
 30
0
 70
     0
  0
VERTEX
  8
1
 62
     3
 10
-32.8348
 20
10.5687
 30
0
 70
     0
  0
VERTEX
  8
1
 62
     3
 10
-32.6386
 20
11.5061
 30
0
 70
     0
  0
VERTEX
  8
1
 62
     3
 10
-32.514
 20
12.6635
 30
0
 70
     0
  0
SEQEND
  0
POLYLINE
  8
1
 62
    11
 66
     1
 10
0
 20
0
 30
0
 70
     0
  0
VERTEX
  8
1
 62
    11
 10
-38.4191
 20
16.3896
 30
0
 70
     0
  0
VERTEX
  8
1
 62
    11
 10
-38.4175
 20
15.6868
 30
0
 70
     0
  0
VERTEX
  8
1
 62
    11
 10
-38.389
 20
15.0199
 30
0
 70
     0
  0
VERTEX
  8
1
 62
    11
 10
-38.3334
 20
14.3891
 30
0
 70
     0
  0
VERTEX
  8
1
 62
    11
 10
-38.2509
 20
13.7942
 30
0
 70
     0
  0
VERTEX
  8
1
 62
    11
 10
-38.1413
 20
13.2352
 30
0
 70
     0
  0
VERTEX
  8
1
 62
    11
 10
-38.0048
 20
12.7123
 30
0
 70
     0
  0
VERTEX
  8
1
 62
    11
 10
-37.8413
 20
12.2253
 30
0
 70
     0
  0
VERTEX
  8
1
 62
    11
 10
-37.6508
 20
11.7743
 30
0
 70
     0
  0
VERTEX
  8
1
 62
    11
 10
-37.4334
 20
11.3593
 30
0
 70
     0
  0
VERTEX
  8
1
 62
    11
 10
-37.1889
 20
10.9803
 30
0
 70
     0
  0
VERTEX
  8
1
 62
    11
 10
-36.9175
 20
10.6373
 30
0
 70
     0
  0
VERTEX
  8
1
 62
    11
 10
-36.6191
 20
10.3303
 30
0
 70
     0
  0
VERTEX
  8
1
 62
    11
 10
-36.2937
 20
10.0593
 30
0
 70
     0
  0
VERTEX
  8
1
 62
    11
 10
-35.9413
 20
9.82439
 30
0
 70
     0
  0
VERTEX
  8
1
 62
    11
 10
-35.5619
 20
9.62549
 30
0
 70
     0
  0
VERTEX
  8
1
 62
    11
 10
-35.1555
 20
9.46265
 30
0
 70
     0
  0
VERTEX
  8
1
 62
    11
 10
-34.7222
 20
9.33588
 30
0
 70
     0
  0
VERTEX
  8
1
 62
    11
 10
-34.2618
 20
9.2452
 30
0
 70
     0
  0
VERTEX
  8
1
 62
    11
 10
-33.7779
 20
9.19101
 30
0
 70
     0
  0
VERTEX
  8
1
 62
    11
 10
-33.7744
 20
9.19063
 30
0
 70
     0
  0
VERTEX
  8
1
 62
    11
 10
-33.2599
 20
9.17291
 30
0
 70
     0
  0
SEQEND
  0
POLYLINE
  8
1
 62
    11
 66
     1
 10
0
 20
0
 30
0
 70
     0
  0
VERTEX
  8
1
 62
    11
 10
-37.9181
 20
16.8689
 30
0
 70
     0
  0
VERTEX
  8
1
 62
    11
 10
-37.9247
 20
16.1396
 30
0
 70
     0
  0
VERTEX
  8
1
 62
    11
 10
-37.9054
 20
15.4477
 30
0
 70
     0
  0
VERTEX
  8
1
 62
    11
 10
-37.8604
 20
14.7931
 30
0
 70
     0
  0
VERTEX
  8
1
 62
    11
 10
-37.7896
 20
14.176
 30
0
 70
     0
  0
VERTEX
  8
1
 62
    11
 10
-37.6931
 20
13.5962
 30
0
 70
     0
  0
VERTEX
  8
1
 62
    11
 10
-37.5708
 20
13.0538
 30
0
 70
     0
  0
VERTEX
  8
1
 62
    11
 10
-37.4228
 20
12.5487
 30
0
 70
     0
  0
VERTEX
  8
1
 62
    11
 10
-37.2491
 20
12.0811
 30
0
 70
     0
  0
VERTEX
  8
1
 62
    11
 10
-37.0497
 20
11.6507
 30
0
 70
     0
  0
VERTEX
  8
1
 62
    11
 10
-36.8246
 20
11.2577
 30
0
 70
     0
  0
VERTEX
  8
1
 62
    11
 10
-36.5739
 20
10.9021
 30
0
 70
     0
  0
VERTEX
  8
1
 62
    11
 10
-36.2975
 20
10.5838
 30
0
 70
     0
  0
VERTEX
  8
1
 62
    11
 10
-35.9955
 20
10.3029
 30
0
 70
     0
  0
VERTEX
  8
1
 62
    11
 10
-35.6679
 20
10.0594
 30
0
 70
     0
  0
VERTEX
  8
1
 62
    11
 10
-35.3147
 20
9.8532
 30
0
 70
     0
  0
VERTEX
  8
1
 62
    11
 10
-34.9359
 20
9.6844
 30
0
 70
     0
  0
VERTEX
  8
1
 62
    11
 10
-34.5316
 20
9.55298
 30
0
 70
     0
  0
VERTEX
  8
1
 62
    11
 10
-34.1018
 20
9.45896
 30
0
 70
     0
  0
VERTEX
  8
1
 62
    11
 10
-33.6466
 20
9.40233
 30
0
 70
     0
  0
VERTEX
  8
1
 62
    11
 10
-33.1659
 20
9.38312
 30
0
 70
     0
  0
SEQEND
  0
POLYLINE
  8
1
 62
    11
 66
     1
 10
0
 20
0
 30
0
 70
     0
  0
VERTEX
  8
1
 62
    11
 10
-37.1001
 20
17.413
 30
0
 70
     0
  0
VERTEX
  8
1
 62
    11
 10
-37.1107
 20
16.6762
 30
0
 70
     0
  0
VERTEX
  8
1
 62
    11
 10
-37.0987
 20
15.977
 30
0
 70
     0
  0
VERTEX
  8
1
 62
    11
 10
-37.0639
 20
15.3157
 30
0
 70
     0
  0
VERTEX
  8
1
 62
    11
 10
-37.0064
 20
14.6922
 30
0
 70
     0
  0
VERTEX
  8
1
 62
    11
 10
-36.9263
 20
14.1064
 30
0
 70
     0
  0
VERTEX
  8
1
 62
    11
 10
-36.8234
 20
13.5583
 30
0
 70
     0
  0
VERTEX
  8
1
 62
    11
 10
-36.6979
 20
13.0481
 30
0
 70
     0
  0
VERTEX
  8
1
 62
    11
 10
-36.5497
 20
12.5756
 30
0
 70
     0
  0
VERTEX
  8
1
 62
    11
 10
-36.379
 20
12.1408
 30
0
 70
     0
  0
VERTEX
  8
1
 62
    11
 10
-36.1857
 20
11.7439
 30
0
 70
     0
  0
VERTEX
  8
1
 62
    11
 10
-35.9698
 20
11.3846
 30
0
 70
     0
  0
VERTEX
  8
1
 62
    11
 10
-35.7315
 20
11.0632
 30
0
 70
     0
  0
VERTEX
  8
1
 62
    11
 10
-35.4707
 20
10.7795
 30
0
 70
     0
  0
VERTEX
  8
1
 62
    11
 10
-35.1876
 20
10.5335
 30
0
 70
     0
  0
VERTEX
  8
1
 62
    11
 10
-34.8821
 20
10.3253
 30
0
 70
     0
  0
VERTEX
  8
1
 62
    11
 10
-34.5543
 20
10.1549
 30
0
 70
     0
  0
VERTEX
  8
1
 62
    11
 10
-34.2043
 20
10.0222
 30
0
 70
     0
  0
VERTEX
  8
1
 62
    11
 10
-33.8322
 20
9.92726
 30
0
 70
     0
  0
VERTEX
  8
1
 62
    11
 10
-33.438
 20
9.87011
 30
0
 70
     0
  0
VERTEX
  8
1
 62
    11
 10
-33.0218
 20
9.85071
 30
0
 70
     0
  0
SEQEND
  0
POLYLINE
  8
1
 62
    11
 66
     1
 10
0
 20
0
 30
0
 70
     0
  0
VERTEX
  8
1
 62
    11
 10
-35.9733
 20
18.0259
 30
0
 70
     0
  0
VERTEX
  8
1
 62
    11
 10
-35.984
 20
17.2985
 30
0
 70
     0
  0
VERTEX
  8
1
 62
    11
 10
-35.9769
 20
16.6083
 30
0
 70
     0
  0
VERTEX
  8
1
 62
    11
 10
-35.9521
 20
15.9554
 30
0
 70
     0
  0
VERTEX
  8
1
 62
    11
 10
-35.9094
 20
15.3398
 30
0
 70
     0
  0
VERTEX
  8
1
 62
    11
 10
-35.849
 20
14.7614
 30
0
 70
     0
  0
VERTEX
  8
1
 62
    11
 10
-35.7708
 20
14.2204
 30
0
 70
     0
  0
VERTEX
  8
1
 62
    11
 10
-35.6749
 20
13.7166
 30
0
 70
     0
  0
VERTEX
  8
1
 62
    11
 10
-35.5612
 20
13.2501
 30
0
 70
     0
  0
VERTEX
  8
1
 62
    11
 10
-35.43
 20
12.8209
 30
0
 70
     0
  0
VERTEX
  8
1
 62
    11
 10
-35.281
 20
12.429
 30
0
 70
     0
  0
VERTEX
  8
1
 62
    11
 10
-35.1146
 20
12.0743
 30
0
 70
     0
  0
VERTEX
  8
1
 62
    11
 10
-34.9306
 20
11.757
 30
0
 70
     0
  0
VERTEX
  8
1
 62
    11
 10
-34.7291
 20
11.477
 30
0
 70
     0
  0
VERTEX
  8
1
 62
    11
 10
-34.5103
 20
11.2342
 30
0
 70
     0
  0
VERTEX
  8
1
 62
    11
 10
-34.2741
 20
11.0288
 30
0
 70
     0
  0
VERTEX
  8
1
 62
    11
 10
-34.0208
 20
10.8606
 30
0
 70
     0
  0
VERTEX
  8
1
 62
    11
 10
-33.7503
 20
10.7298
 30
0
 70
     0
  0
VERTEX
  8
1
 62
    11
 10
-33.4627
 20
10.6362
 30
0
 70
     0
  0
VERTEX
  8
1
 62
    11
 10
-33.1582
 20
10.5799
 30
0
 70
     0
  0
VERTEX
  8
1
 62
    11
 10
-32.8368
 20
10.5608
 30
0
 70
     0
  0
SEQEND
  0
POLYLINE
  8
1
 62
    11
 66
     1
 10
0
 20
0
 30
0
 70
     0
  0
VERTEX
  8
1
 62
    11
 10
-34.5579
 20
18.7104
 30
0
 70
     0
  0
VERTEX
  8
1
 62
    11
 10
-34.566
 20
18.0075
 30
0
 70
     0
  0
VERTEX
  8
1
 62
    11
 10
-34.563
 20
17.3407
 30
0
 70
     0
  0
VERTEX
  8
1
 62
    11
 10
-34.5489
 20
16.7098
 30
0
 70
     0
  0
VERTEX
  8
1
 62
    11
 10
-34.5238
 20
16.115
 30
0
 70
     0
  0
VERTEX
  8
1
 62
    11
 10
-34.4877
 20
15.5562
 30
0
 70
     0
  0
VERTEX
  8
1
 62
    11
 10
-34.4404
 20
15.0334
 30
0
 70
     0
  0
VERTEX
  8
1
 62
    11
 10
-34.3822
 20
14.5466
 30
0
 70
     0
  0
VERTEX
  8
1
 62
    11
 10
-34.313
 20
14.0959
 30
0
 70
     0
  0
VERTEX
  8
1
 62
    11
 10
-34.2328
 20
13.6812
 30
0
 70
     0
  0
VERTEX
  8
1
 62
    11
 10
-34.1416
 20
13.3025
 30
0
 70
     0
  0
VERTEX
  8
1
 62
    11
 10
-34.0396
 20
12.9599
 30
0
 70
     0
  0
VERTEX
  8
1
 62
    11
 10
-33.9267
 20
12.6534
 30
0
 70
     0
  0
VERTEX
  8
1
 62
    11
 10
-33.803
 20
12.3829
 30
0
 70
     0
  0
VERTEX
  8
1
 62
    11
 10
-33.6686
 20
12.1484
 30
0
 70
     0
  0
VERTEX
  8
1
 62
    11
 10
-33.5234
 20
11.95
 30
0
 70
     0
  0
VERTEX
  8
1
 62
    11
 10
-33.3677
 20
11.7876
 30
0
 70
     0
  0
VERTEX
  8
1
 62
    11
 10
-33.2015
 20
11.6613
 30
0
 70
     0
  0
VERTEX
  8
1
 62
    11
 10
-33.0247
 20
11.571
 30
0
 70
     0
  0
VERTEX
  8
1
 62
    11
 10
-32.8376
 20
11.5167
 30
0
 70
     0
  0
VERTEX
  8
1
 62
    11
 10
-32.6402
 20
11.4985
 30
0
 70
     0
  0
SEQEND
  0
POLYLINE
  8
1
 62
    11
 66
     1
 10
0
 20
0
 30
0
 70
     0
  0
VERTEX
  8
1
 62
    11
 10
-32.887
 20
19.4625
 30
0
 70
     0
  0
VERTEX
  8
1
 62
    11
 10
-32.8929
 20
18.7996
 30
0
 70
     0
  0
VERTEX
  8
1
 62
    11
 10
-32.8962
 20
18.1707
 30
0
 70
     0
  0
VERTEX
  8
1
 62
    11
 10
-32.897
 20
17.5758
 30
0
 70
     0
  0
VERTEX
  8
1
 62
    11
 10
-32.8951
 20
17.0149
 30
0
 70
     0
  0
VERTEX
  8
1
 62
    11
 10
-32.8907
 20
16.488
 30
0
 70
     0
  0
VERTEX
  8
1
 62
    11
 10
-32.8837
 20
15.9951
 30
0
 70
     0
  0
VERTEX
  8
1
 62
    11
 10
-32.8741
 20
15.5361
 30
0
 70
     0
  0
VERTEX
  8
1
 62
    11
 10
-32.8619
 20
15.1112
 30
0
 70
     0
  0
VERTEX
  8
1
 62
    11
 10
-32.8471
 20
14.7202
 30
0
 70
     0
  0
VERTEX
  8
1
 62
    11
 10
-32.8298
 20
14.3633
 30
0
 70
     0
  0
VERTEX
  8
1
 62
    11
 10
-32.8098
 20
14.0403
 30
0
 70
     0
  0
VERTEX
  8
1
 62
    11
 10
-32.7873
 20
13.7514
 30
0
 70
     0
  0
VERTEX
  8
1
 62
    11
 10
-32.7622
 20
13.4964
 30
0
 70
     0
  0
VERTEX
  8
1
 62
    11
 10
-32.7345
 20
13.2754
 30
0
 70
     0
  0
VERTEX
  8
1
 62
    11
 10
-32.7042
 20
13.0885
 30
0
 70
     0
  0
VERTEX
  8
1
 62
    11
 10
-32.6713
 20
12.9355
 30
0
 70
     0
  0
VERTEX
  8
1
 62
    11
 10
-32.6359
 20
12.8165
 30
0
 70
     0
  0
VERTEX
  8
1
 62
    11
 10
-32.5978
 20
12.7315
 30
0
 70
     0
  0
VERTEX
  8
1
 62
    11
 10
-32.5572
 20
12.6805
 30
0
 70
     0
  0
VERTEX
  8
1
 62
    11
 10
-32.514
 20
12.6635
 30
0
 70
     0
  0
SEQEND
  0
POLYLINE
  8
1
 62
    11
 66
     1
 10
0
 20
0
 30
0
 70
     0
  0
VERTEX
  8
1
 62
    11
 10
-33.26
 20
9.17273
 30
0
 70
     0
  0
VERTEX
  8
1
 62
    11
 10
-33.184
 20
9.17273
 30
0
 70
     0
  0
VERTEX
  8
1
 62
    11
 10
-33.108
 20
9.17274
 30
0
 70
     0
  0
VERTEX
  8
1
 62
    11
 10
-33.032
 20
9.17274
 30
0
 70
     0
  0
VERTEX
  8
1
 62
    11
 10
-32.956
 20
9.17275
 30
0
 70
     0
  0
VERTEX
  8
1
 62
    11
 10
-32.88
 20
9.17275
 30
0
 70
     0
  0
VERTEX
  8
1
 62
    11
 10
-32.804
 20
9.17275
 30
0
 70
     0
  0
VERTEX
  8
1
 62
    11
 10
-32.728
 20
9.17276
 30
0
 70
     0
  0
VERTEX
  8
1
 62
    11
 10
-32.652
 20
9.17276
 30
0
 70
     0
  0
VERTEX
  8
1
 62
    11
 10
-32.576
 20
9.17276
 30
0
 70
     0
  0
VERTEX
  8
1
 62
    11
 10
-32.5
 20
9.17276
 30
0
 70
     0
  0
SEQEND
  0
POLYLINE
  8
1
 62
    11
 66
     1
 10
0
 20
0
 30
0
 70
     0
  0
VERTEX
  8
1
 62
    11
 10
-33.1659
 20
9.38283
 30
0
 70
     0
  0
VERTEX
  8
1
 62
    11
 10
-33.0993
 20
9.38282
 30
0
 70
     0
  0
VERTEX
  8
1
 62
    11
 10
-33.0328
 20
9.38282
 30
0
 70
     0
  0
VERTEX
  8
1
 62
    11
 10
-32.9662
 20
9.38281
 30
0
 70
     0
  0
VERTEX
  8
1
 62
    11
 10
-32.8996
 20
9.38281
 30
0
 70
     0
  0
VERTEX
  8
1
 62
    11
 10
-32.833
 20
9.3828
 30
0
 70
     0
  0
VERTEX
  8
1
 62
    11
 10
-32.7664
 20
9.3828
 30
0
 70
     0
  0
VERTEX
  8
1
 62
    11
 10
-32.6998
 20
9.3828
 30
0
 70
     0
  0
VERTEX
  8
1
 62
    11
 10
-32.6332
 20
9.38279
 30
0
 70
     0
  0
VERTEX
  8
1
 62
    11
 10
-32.5666
 20
9.38279
 30
0
 70
     0
  0
VERTEX
  8
1
 62
    11
 10
-32.5
 20
9.38279
 30
0
 70
     0
  0
SEQEND
  0
POLYLINE
  8
1
 62
    11
 66
     1
 10
0
 20
0
 30
0
 70
     0
  0
VERTEX
  8
1
 62
    11
 10
-33.0219
 20
9.85012
 30
0
 70
     0
  0
VERTEX
  8
1
 62
    11
 10
-32.9697
 20
9.85011
 30
0
 70
     0
  0
VERTEX
  8
1
 62
    11
 10
-32.9175
 20
9.85011
 30
0
 70
     0
  0
VERTEX
  8
1
 62
    11
 10
-32.8653
 20
9.8501
 30
0
 70
     0
  0
VERTEX
  8
1
 62
    11
 10
-32.8131
 20
9.8501
 30
0
 70
     0
  0
VERTEX
  8
1
 62
    11
 10
-32.7609
 20
9.8501
 30
0
 70
     0
  0
VERTEX
  8
1
 62
    11
 10
-32.7088
 20
9.85009
 30
0
 70
     0
  0
VERTEX
  8
1
 62
    11
 10
-32.6566
 20
9.85009
 30
0
 70
     0
  0
VERTEX
  8
1
 62
    11
 10
-32.6044
 20
9.85009
 30
0
 70
     0
  0
VERTEX
  8
1
 62
    11
 10
-32.5522
 20
9.85009
 30
0
 70
     0
  0
VERTEX
  8
1
 62
    11
 10
-32.5
 20
9.85009
 30
0
 70
     0
  0
SEQEND
  0
POLYLINE
  8
1
 62
    11
 66
     1
 10
0
 20
0
 30
0
 70
     0
  0
VERTEX
  8
1
 62
    11
 10
-32.8369
 20
10.5602
 30
0
 70
     0
  0
VERTEX
  8
1
 62
    11
 10
-32.8032
 20
10.5602
 30
0
 70
     0
  0
VERTEX
  8
1
 62
    11
 10
-32.7695
 20
10.5602
 30
0
 70
     0
  0
VERTEX
  8
1
 62
    11
 10
-32.7359
 20
10.5602
 30
0
 70
     0
  0
VERTEX
  8
1
 62
    11
 10
-32.7022
 20
10.5601
 30
0
 70
     0
  0
VERTEX
  8
1
 62
    11
 10
-32.6685
 20
10.5601
 30
0
 70
     0
  0
VERTEX
  8
1
 62
    11
 10
-32.6348
 20
10.5601
 30
0
 70
     0
  0
VERTEX
  8
1
 62
    11
 10
-32.6011
 20
10.5601
 30
0
 70
     0
  0
VERTEX
  8
1
 62
    11
 10
-32.5674
 20
10.5601
 30
0
 70
     0
  0
VERTEX
  8
1
 62
    11
 10
-32.5337
 20
10.5601
 30
0
 70
     0
  0
VERTEX
  8
1
 62
    11
 10
-32.5
 20
10.5601
 30
0
 70
     0
  0
SEQEND
  0
POLYLINE
  8
1
 62
    11
 66
     1
 10
0
 20
0
 30
0
 70
     0
  0
VERTEX
  8
1
 62
    11
 10
-32.6401
 20
11.498
 30
0
 70
     0
  0
VERTEX
  8
1
 62
    11
 10
-32.6261
 20
11.498
 30
0
 70
     0
  0
VERTEX
  8
1
 62
    11
 10
-32.6121
 20
11.498
 30
0
 70
     0
  0
VERTEX
  8
1
 62
    11
 10
-32.5981
 20
11.498
 30
0
 70
     0
  0
VERTEX
  8
1
 62
    11
 10
-32.5841
 20
11.498
 30
0
 70
     0
  0
VERTEX
  8
1
 62
    11
 10
-32.57
 20
11.498
 30
0
 70
     0
  0
VERTEX
  8
1
 62
    11
 10
-32.556
 20
11.498
 30
0
 70
     0
  0
VERTEX
  8
1
 62
    11
 10
-32.542
 20
11.498
 30
0
 70
     0
  0
VERTEX
  8
1
 62
    11
 10
-32.528
 20
11.498
 30
0
 70
     0
  0
VERTEX
  8
1
 62
    11
 10
-32.514
 20
11.498
 30
0
 70
     0
  0
VERTEX
  8
1
 62
    11
 10
-32.5
 20
11.498
 30
0
 70
     0
  0
SEQEND
  0
POLYLINE
  8
1
 62
    11
 66
     1
 10
0
 20
0
 30
0
 70
     0
  0
VERTEX
  8
1
 62
    11
 10
-32.514
 20
12.6635
 30
0
 70
     0
  0
VERTEX
  8
1
 62
    11
 10
-32.5126
 20
12.6635
 30
0
 70
     0
  0
VERTEX
  8
1
 62
    11
 10
-32.5112
 20
12.6635
 30
0
 70
     0
  0
VERTEX
  8
1
 62
    11
 10
-32.5098
 20
12.6635
 30
0
 70
     0
  0
VERTEX
  8
1
 62
    11
 10
-32.5084
 20
12.6635
 30
0
 70
     0
  0
VERTEX
  8
1
 62
    11
 10
-32.507
 20
12.6635
 30
0
 70
     0
  0
VERTEX
  8
1
 62
    11
 10
-32.5056
 20
12.6635
 30
0
 70
     0
  0
VERTEX
  8
1
 62
    11
 10
-32.5042
 20
12.6635
 30
0
 70
     0
  0
VERTEX
  8
1
 62
    11
 10
-32.5028
 20
12.6635
 30
0
 70
     0
  0
VERTEX
  8
1
 62
    11
 10
-32.5014
 20
12.6635
 30
0
 70
     0
  0
VERTEX
  8
1
 62
    11
 10
-32.5
 20
12.6635
 30
0
 70
     0
  0
SEQEND
  0
POLYLINE
  8
1
 62
     9
 66
     1
 10
0
 20
0
 30
0
 70
     0
  0
VERTEX
  8
1
 62
     9
 10
-33.5
 20
19.187
 30
0
 70
     0
  0
VERTEX
  8
1
 62
     9
 10
-33.5
 20
18.5126
 30
0
 70
     0
  0
VERTEX
  8
1
 62
     9
 10
-33.5
 20
17.8703
 30
0
 70
     0
  0
VERTEX
  8
1
 62
     9
 10
-33.5
 20
17.2599
 30
0
 70
     0
  0
VERTEX
  8
1
 62
     9
 10
-33.5
 20
16.6808
 30
0
 70
     0
  0
VERTEX
  8
1
 62
     9
 10
-33.5
 20
16.1325
 30
0
 70
     0
  0
VERTEX
  8
1
 62
     9
 10
-33.5
 20
15.6142
 30
0
 70
     0
  0
VERTEX
  8
1
 62
     9
 10
-33.5
 20
15.1252
 30
0
 70
     0
  0
VERTEX
  8
1
 62
     9
 10
-33.5
 20
14.6644
 30
0
 70
     0
  0
VERTEX
  8
1
 62
     9
 10
-33.5
 20
14.2302
 30
0
 70
     0
  0
VERTEX
  8
1
 62
     9
 10
-33.5
 20
13.8208
 30
0
 70
     0
  0
VERTEX
  8
1
 62
     9
 10
-33.5
 20
13.4332
 30
0
 70
     0
  0
VERTEX
  8
1
 62
     9
 10
-33.5
 20
13.0636
 30
0
 70
     0
  0
VERTEX
  8
1
 62
     9
 10
-33.5
 20
12.7058
 30
0
 70
     0
  0
VERTEX
  8
1
 62
     9
 10
-33.5
 20
12.3502
 30
0
 70
     0
  0
VERTEX
  8
1
 62
     9
 10
-33.5
 20
11.9805
 30
0
 70
     0
  0
VERTEX
  8
1
 62
     9
 10
-33.5
 20
11.9552
 30
0
 70
     0
  0
VERTEX
  8
1
 62
     9
 10
-33.5
 20
11.5996
 30
0
 70
     0
  0
VERTEX
  8
1
 62
     9
 10
-33.5
 20
11.1538
 30
0
 70
     0
  0
VERTEX
  8
1
 62
     9
 10
-33.5
 20
10.6636
 30
0
 70
     0
  0
VERTEX
  8
1
 62
     9
 10
-33.5
 20
10.5645
 30
0
 70
     0
  0
VERTEX
  8
1
 62
     9
 10
-33.5
 20
9.88617
 30
0
 70
     0
  0
VERTEX
  8
1
 62
     9
 10
-33.5
 20
9.73086
 30
0
 70
     0
  0
VERTEX
  8
1
 62
     9
 10
-33.5
 20
9.39799
 30
0
 70
     0
  0
VERTEX
  8
1
 62
     9
 10
-33.5
 20
9.18086
 30
0
 70
     0
  0
VERTEX
  8
1
 62
     9
 10
-33.5
 20
9.20173
 30
0
 70
     0
  0
SEQEND
  0
POLYLINE
  8
1
 62
     9
 66
     1
 10
0
 20
0
 30
0
 70
     0
  0
VERTEX
  8
1
 62
     9
 10
-34.5
 20
18.7375
 30
0
 70
     0
  0
VERTEX
  8
1
 62
     9
 10
-34.5
 20
18.0396
 30
0
 70
     0
  0
VERTEX
  8
1
 62
     9
 10
-34.5
 20
17.3727
 30
0
 70
     0
  0
VERTEX
  8
1
 62
     9
 10
-34.5
 20
16.7359
 30
0
 70
     0
  0
VERTEX
  8
1
 62
     9
 10
-34.5
 20
16.4337
 30
0
 70
     0
  0
VERTEX
  8
1
 62
     9
 10
-34.5
 20
16.1283
 30
0
 70
     0
  0
VERTEX
  8
1
 62
     9
 10
-34.5
 20
15.549
 30
0
 70
     0
  0
VERTEX
  8
1
 62
     9
 10
-34.5
 20
14.997
 30
0
 70
     0
  0
VERTEX
  8
1
 62
     9
 10
-34.5
 20
14.471
 30
0
 70
     0
  0
VERTEX
  8
1
 62
     9
 10
-34.5
 20
13.9692
 30
0
 70
     0
  0
VERTEX
  8
1
 62
     9
 10
-34.5
 20
13.4891
 30
0
 70
     0
  0
VERTEX
  8
1
 62
     9
 10
-34.5
 20
13.0277
 30
0
 70
     0
  0
VERTEX
  8
1
 62
     9
 10
-34.5
 20
12.5804
 30
0
 70
     0
  0
VERTEX
  8
1
 62
     9
 10
-34.5
 20
12.1411
 30
0
 70
     0
  0
VERTEX
  8
1
 62
     9
 10
-34.5
 20
11.7004
 30
0
 70
     0
  0
VERTEX
  8
1
 62
     9
 10
-34.5
 20
11.2652
 30
0
 70
     0
  0
VERTEX
  8
1
 62
     9
 10
-34.5
 20
11.2449
 30
0
 70
     0
  0
VERTEX
  8
1
 62
     9
 10
-34.5
 20
10.7671
 30
0
 70
     0
  0
VERTEX
  8
1
 62
     9
 10
-34.5
 20
10.226
 30
0
 70
     0
  0
VERTEX
  8
1
 62
     9
 10
-34.5
 20
10.1488
 30
0
 70
     0
  0
VERTEX
  8
1
 62
     9
 10
-34.5
 20
9.59756
 30
0
 70
     0
  0
VERTEX
  8
1
 62
     9
 10
-34.5
 20
9.54986
 30
0
 70
     0
  0
VERTEX
  8
1
 62
     9
 10
-34.5
 20
9.29197
 30
0
 70
     0
  0
VERTEX
  8
1
 62
     9
 10
-34.5
 20
9.30672
 30
0
 70
     0
  0
SEQEND
  0
POLYLINE
  8
1
 62
     9
 66
     1
 10
0
 20
0
 30
0
 70
     0
  0
VERTEX
  8
1
 62
     9
 10
-35.5
 20
18.2566
 30
0
 70
     0
  0
VERTEX
  8
1
 62
     9
 10
-35.5
 20
17.542
 30
0
 70
     0
  0
VERTEX
  8
1
 62
     9
 10
-35.5
 20
16.8567
 30
0
 70
     0
  0
VERTEX
  8
1
 62
     9
 10
-35.5
 20
16.1996
 30
0
 70
     0
  0
VERTEX
  8
1
 62
     9
 10
-35.5
 20
15.5698
 30
0
 70
     0
  0
VERTEX
  8
1
 62
     9
 10
-35.5
 20
14.9659
 30
0
 70
     0
  0
VERTEX
  8
1
 62
     9
 10
-35.5
 20
14.3864
 30
0
 70
     0
  0
VERTEX
  8
1
 62
     9
 10
-35.5
 20
13.8292
 30
0
 70
     0
  0
VERTEX
  8
1
 62
     9
 10
-35.5
 20
13.2917
 30
0
 70
     0
  0
VERTEX
  8
1
 62
     9
 10
-35.5
 20
13.2017
 30
0
 70
     0
  0
VERTEX
  8
1
 62
     9
 10
-35.5
 20
12.7707
 30
0
 70
     0
  0
VERTEX
  8
1
 62
     9
 10
-35.5
 20
12.2632
 30
0
 70
     0
  0
VERTEX
  8
1
 62
     9
 10
-35.5
 20
11.7634
 30
0
 70
     0
  0
VERTEX
  8
1
 62
     9
 10
-35.5
 20
11.2634
 30
0
 70
     0
  0
VERTEX
  8
1
 62
     9
 10
-35.5
 20
10.8465
 30
0
 70
     0
  0
VERTEX
  8
1
 62
     9
 10
-35.5
 20
10.7528
 30
0
 70
     0
  0
VERTEX
  8
1
 62
     9
 10
-35.5
 20
10.2246
 30
0
 70
     0
  0
VERTEX
  8
1
 62
     9
 10
-35.5
 20
9.9701
 30
0
 70
     0
  0
VERTEX
  8
1
 62
     9
 10
-35.5
 20
9.68187
 30
0
 70
     0
  0
VERTEX
  8
1
 62
     9
 10
-35.5
 20
9.60068
 30
0
 70
     0
  0
VERTEX
  8
1
 62
     9
 10
-35.5
 20
9.60187
 30
0
 70
     0
  0
SEQEND
  0
POLYLINE
  8
1
 62
     9
 66
     1
 10
0
 20
0
 30
0
 70
     0
  0
VERTEX
  8
1
 62
     9
 10
-36.5
 20
17.7416
 30
0
 70
     0
  0
VERTEX
  8
1
 62
     9
 10
-36.5
 20
17.0153
 30
0
 70
     0
  0
VERTEX
  8
1
 62
     9
 10
-36.5
 20
16.3156
 30
0
 70
     0
  0
VERTEX
  8
1
 62
     9
 10
-36.5
 20
15.6416
 30
0
 70
     0
  0
VERTEX
  8
1
 62
     9
 10
-36.5
 20
14.9924
 30
0
 70
     0
  0
VERTEX
  8
1
 62
     9
 10
-36.5
 20
14.3667
 30
0
 70
     0
  0
VERTEX
  8
1
 62
     9
 10
-36.5
 20
13.7628
 30
0
 70
     0
  0
VERTEX
  8
1
 62
     9
 10
-36.5
 20
13.1783
 30
0
 70
     0
  0
VERTEX
  8
1
 62
     9
 10
-36.5
 20
12.6102
 30
0
 70
     0
  0
VERTEX
  8
1
 62
     9
 10
-36.5
 20
12.5458
 30
0
 70
     0
  0
VERTEX
  8
1
 62
     9
 10
-36.5
 20
12.0525
 30
0
 70
     0
  0
VERTEX
  8
1
 62
     9
 10
-36.5
 20
11.5047
 30
0
 70
     0
  0
VERTEX
  8
1
 62
     9
 10
-36.5
 20
10.9609
 30
0
 70
     0
  0
VERTEX
  8
1
 62
     9
 10
-36.5
 20
10.8372
 30
0
 70
     0
  0
VERTEX
  8
1
 62
     9
 10
-36.5
 20
10.4238
 30
0
 70
     0
  0
VERTEX
  8
1
 62
     9
 10
-36.5
 20
10.2325
 30
0
 70
     0
  0
VERTEX
  8
1
 62
     9
 10
-36.5
 20
10.2021
 30
0
 70
     0
  0
SEQEND
  0
POLYLINE
  8
1
 62
     9
 66
     1
 10
0
 20
0
 30
0
 70
     0
  0
VERTEX
  8
1
 62
     9
 10
-37.5
 20
17.1502
 30
0
 70
     0
  0
VERTEX
  8
1
 62
     9
 10
-37.5
 20
16.4222
 30
0
 70
     0
  0
VERTEX
  8
1
 62
     9
 10
-37.5
 20
15.7161
 30
0
 70
     0
  0
VERTEX
  8
1
 62
     9
 10
-37.5
 20
15.0318
 30
0
 70
     0
  0
VERTEX
  8
1
 62
     9
 10
-37.5
 20
14.3689
 30
0
 70
     0
  0
VERTEX
  8
1
 62
     9
 10
-37.5
 20
13.7266
 30
0
 70
     0
  0
VERTEX
  8
1
 62
     9
 10
-37.5
 20
13.1034
 30
0
 70
     0
  0
VERTEX
  8
1
 62
     9
 10
-37.5
 20
12.884
 30
0
 70
     0
  0
VERTEX
  8
1
 62
     9
 10
-37.5
 20
12.4894
 30
0
 70
     0
  0
VERTEX
  8
1
 62
     9
 10
-37.5
 20
11.8901
 30
0
 70
     0
  0
VERTEX
  8
1
 62
     9
 10
-37.5
 20
11.4935
 30
0
 70
     0
  0
VERTEX
  8
1
 62
     9
 10
-37.5
 20
11.3777
 30
0
 70
     0
  0
SEQEND
  0
POLYLINE
  8
1
 62
    14
 66
     1
 10
0
 20
0
 30
0
 70
     0
  0
VERTEX
  8
1
 62
    14
 10
-34.7486
 20
9.35454
 30
0
 70
     0
  0
VERTEX
  8
1
 62
    14
 10
-34.7865
 20
9.35454
 30
0
 70
     0
  0
VERTEX
  8
1
 62
    14
 10
-34.7053
 20
9.35454
 30
0
 70
     0
  0
VERTEX
  8
1
 62
    14
 10
-34.1799
 20
9.35454
 30
0
 70
     0
  0
VERTEX
  8
1
 62
    14
 10
-33.6754
 20
9.35454
 30
0
 70
     0
  0
VERTEX
  8
1
 62
    14
 10
-33.1787
 20
9.35454
 30
0
 70
     0
  0
SEQEND
  0
POLYLINE
  8
1
 62
    14
 66
     1
 10
0
 20
0
 30
0
 70
     0
  0
VERTEX
  8
1
 62
    14
 10
-36.6836
 20
10.3545
 30
0
 70
     0
  0
VERTEX
  8
1
 62
    14
 10
-36.6408
 20
10.3545
 30
0
 70
     0
  0
VERTEX
  8
1
 62
    14
 10
-36.5876
 20
10.3545
 30
0
 70
     0
  0
VERTEX
  8
1
 62
    14
 10
-36.0357
 20
10.3545
 30
0
 70
     0
  0
VERTEX
  8
1
 62
    14
 10
-35.938
 20
10.3545
 30
0
 70
     0
  0
VERTEX
  8
1
 62
    14
 10
-35.3685
 20
10.3545
 30
0
 70
     0
  0
VERTEX
  8
1
 62
    14
 10
-34.8939
 20
10.3545
 30
0
 70
     0
  0
VERTEX
  8
1
 62
    14
 10
-34.8562
 20
10.3545
 30
0
 70
     0
  0
VERTEX
  8
1
 62
    14
 10
-34.4029
 20
10.3545
 30
0
 70
     0
  0
VERTEX
  8
1
 62
    14
 10
-33.9907
 20
10.3545
 30
0
 70
     0
  0
VERTEX
  8
1
 62
    14
 10
-33.6093
 20
10.3545
 30
0
 70
     0
  0
VERTEX
  8
1
 62
    14
 10
-33.2469
 20
10.3545
 30
0
 70
     0
  0
VERTEX
  8
1
 62
    14
 10
-32.8905
 20
10.3545
 30
0
 70
     0
  0
SEQEND
  0
POLYLINE
  8
1
 62
    14
 66
     1
 10
0
 20
0
 30
0
 70
     0
  0
VERTEX
  8
1
 62
    14
 10
-37.4896
 20
11.3545
 30
0
 70
     0
  0
VERTEX
  8
1
 62
    14
 10
-37.4387
 20
11.3545
 30
0
 70
     0
  0
VERTEX
  8
1
 62
    14
 10
-37.4266
 20
11.3545
 30
0
 70
     0
  0
VERTEX
  8
1
 62
    14
 10
-36.8621
 20
11.3545
 30
0
 70
     0
  0
VERTEX
  8
1
 62
    14
 10
-36.6974
 20
11.3545
 30
0
 70
     0
  0
VERTEX
  8
1
 62
    14
 10
-36.0075
 20
11.3545
 30
0
 70
     0
  0
VERTEX
  8
1
 62
    14
 10
-35.9119
 20
11.3545
 30
0
 70
     0
  0
VERTEX
  8
1
 62
    14
 10
-35.3949
 20
11.3545
 30
0
 70
     0
  0
VERTEX
  8
1
 62
    14
 10
-34.8592
 20
11.3545
 30
0
 70
     0
  0
VERTEX
  8
1
 62
    14
 10
-34.5788
 20
11.3545
 30
0
 70
     0
  0
VERTEX
  8
1
 62
    14
 10
-34.3987
 20
11.3545
 30
0
 70
     0
  0
VERTEX
  8
1
 62
    14
 10
-34.0081
 20
11.3545
 30
0
 70
     0
  0
VERTEX
  8
1
 62
    14
 10
-33.6724
 20
11.3545
 30
0
 70
     0
  0
VERTEX
  8
1
 62
    14
 10
-33.3819
 20
11.3545
 30
0
 70
     0
  0
VERTEX
  8
1
 62
    14
 10
-33.126
 20
11.3545
 30
0
 70
     0
  0
VERTEX
  8
1
 62
    14
 10
-32.893
 20
11.3545
 30
0
 70
     0
  0
VERTEX
  8
1
 62
    14
 10
-32.6703
 20
11.3545
 30
0
 70
     0
  0
SEQEND
  0
POLYLINE
  8
1
 62
    14
 66
     1
 10
0
 20
0
 30
0
 70
     0
  0
VERTEX
  8
1
 62
    14
 10
-37.9533
 20
12.3545
 30
0
 70
     0
  0
VERTEX
  8
1
 62
    14
 10
-37.88
 20
12.3545
 30
0
 70
     0
  0
VERTEX
  8
1
 62
    14
 10
-37.6754
 20
12.3545
 30
0
 70
     0
  0
VERTEX
  8
1
 62
    14
 10
-37.3304
 20
12.3545
 30
0
 70
     0
  0
VERTEX
  8
1
 62
    14
 10
-36.8629
 20
12.3545
 30
0
 70
     0
  0
VERTEX
  8
1
 62
    14
 10
-36.4261
 20
12.3545
 30
0
 70
     0
  0
VERTEX
  8
1
 62
    14
 10
-36.0811
 20
12.3545
 30
0
 70
     0
  0
VERTEX
  8
1
 62
    14
 10
-35.3793
 20
12.3545
 30
0
 70
     0
  0
VERTEX
  8
1
 62
    14
 10
-35.2021
 20
12.3545
 30
0
 70
     0
  0
VERTEX
  8
1
 62
    14
 10
-34.774
 20
12.3545
 30
0
 70
     0
  0
VERTEX
  8
1
 62
    14
 10
-34.2611
 20
12.3545
 30
0
 70
     0
  0
VERTEX
  8
1
 62
    14
 10
-33.8319
 20
12.3545
 30
0
 70
     0
  0
VERTEX
  8
1
 62
    14
 10
-33.7579
 20
12.3545
 30
0
 70
     0
  0
VERTEX
  8
1
 62
    14
 10
-33.4964
 20
12.3545
 30
0
 70
     0
  0
VERTEX
  8
1
 62
    14
 10
-33.2313
 20
12.3545
 30
0
 70
     0
  0
VERTEX
  8
1
 62
    14
 10
-33.023
 20
12.3545
 30
0
 70
     0
  0
VERTEX
  8
1
 62
    14
 10
-32.8615
 20
12.3545
 30
0
 70
     0
  0
VERTEX
  8
1
 62
    14
 10
-32.7361
 20
12.3545
 30
0
 70
     0
  0
VERTEX
  8
1
 62
    14
 10
-32.6355
 20
12.3545
 30
0
 70
     0
  0
VERTEX
  8
1
 62
    14
 10
-32.5473
 20
12.3545
 30
0
 70
     0
  0
SEQEND
  0
POLYLINE
  8
1
 62
    14
 66
     1
 10
0
 20
0
 30
0
 70
     0
  0
VERTEX
  8
1
 62
    14
 10
-38.2367
 20
13.3545
 30
0
 70
     0
  0
VERTEX
  8
1
 62
    14
 10
-38.1592
 20
13.3545
 30
0
 70
     0
  0
VERTEX
  8
1
 62
    14
 10
-37.9959
 20
13.3545
 30
0
 70
     0
  0
VERTEX
  8
1
 62
    14
 10
-37.6171
 20
13.3545
 30
0
 70
     0
  0
VERTEX
  8
1
 62
    14
 10
-37.1265
 20
13.3545
 30
0
 70
     0
  0
VERTEX
  8
1
 62
    14
 10
-36.7346
 20
13.3545
 30
0
 70
     0
  0
VERTEX
  8
1
 62
    14
 10
-36.2298
 20
13.3545
 30
0
 70
     0
  0
VERTEX
  8
1
 62
    14
 10
-35.541
 20
13.3545
 30
0
 70
     0
  0
VERTEX
  8
1
 62
    14
 10
-35.4073
 20
13.3545
 30
0
 70
     0
  0
VERTEX
  8
1
 62
    14
 10
-34.6872
 20
13.3545
 30
0
 70
     0
  0
VERTEX
  8
1
 62
    14
 10
-34.1221
 20
13.3545
 30
0
 70
     0
  0
VERTEX
  8
1
 62
    14
 10
-34.076
 20
13.3545
 30
0
 70
     0
  0
VERTEX
  8
1
 62
    14
 10
-33.5894
 20
13.3545
 30
0
 70
     0
  0
VERTEX
  8
1
 62
    14
 10
-33.1985
 20
13.3545
 30
0
 70
     0
  0
VERTEX
  8
1
 62
    14
 10
-32.8946
 20
13.3545
 30
0
 70
     0
  0
VERTEX
  8
1
 62
    14
 10
-32.7444
 20
13.3545
 30
0
 70
     0
  0
SEQEND
  0
POLYLINE
  8
1
 62
    14
 66
     1
 10
0
 20
0
 30
0
 70
     0
  0
VERTEX
  8
1
 62
    14
 10
-38.4011
 20
14.3545
 30
0
 70
     0
  0
VERTEX
  8
1
 62
    14
 10
-38.3517
 20
14.3545
 30
0
 70
     0
  0
VERTEX
  8
1
 62
    14
 10
-38.3222
 20
14.3545
 30
0
 70
     0
  0
VERTEX
  8
1
 62
    14
 10
-37.7881
 20
14.3545
 30
0
 70
     0
  0
VERTEX
  8
1
 62
    14
 10
-37.5219
 20
14.3545
 30
0
 70
     0
  0
VERTEX
  8
1
 62
    14
 10
-36.921
 20
14.3545
 30
0
 70
     0
  0
VERTEX
  8
1
 62
    14
 10
-36.5201
 20
14.3545
 30
0
 70
     0
  0
VERTEX
  8
1
 62
    14
 10
-35.7428
 20
14.3545
 30
0
 70
     0
  0
VERTEX
  8
1
 62
    14
 10
-35.5522
 20
14.3545
 30
0
 70
     0
  0
VERTEX
  8
1
 62
    14
 10
-34.6815
 20
14.3545
 30
0
 70
     0
  0
VERTEX
  8
1
 62
    14
 10
-34.3173
 20
14.3545
 30
0
 70
     0
  0
VERTEX
  8
1
 62
    14
 10
-33.9425
 20
14.3545
 30
0
 70
     0
  0
VERTEX
  8
1
 62
    14
 10
-33.3344
 20
14.3545
 30
0
 70
     0
  0
VERTEX
  8
1
 62
    14
 10
-32.8406
 20
14.3545
 30
0
 70
     0
  0
VERTEX
  8
1
 62
    14
 10
-32.8292
 20
14.3545
 30
0
 70
     0
  0
SEQEND
  0
POLYLINE
  8
1
 62
    14
 66
     1
 10
0
 20
0
 30
0
 70
     0
  0
VERTEX
  8
1
 62
    14
 10
-38.4769
 20
15.3545
 30
0
 70
     0
  0
VERTEX
  8
1
 62
    14
 10
-38.3968
 20
15.3545
 30
0
 70
     0
  0
VERTEX
  8
1
 62
    14
 10
-38.0123
 20
15.3545
 30
0
 70
     0
  0
VERTEX
  8
1
 62
    14
 10
-37.8762
 20
15.3545
 30
0
 70
     0
  0
VERTEX
  8
1
 62
    14
 10
-37.0269
 20
15.3545
 30
0
 70
     0
  0
VERTEX
  8
1
 62
    14
 10
-37.0013
 20
15.3545
 30
0
 70
     0
  0
VERTEX
  8
1
 62
    14
 10
-35.8843
 20
15.3545
 30
0
 70
     0
  0
VERTEX
  8
1
 62
    14
 10
-35.8623
 20
15.3545
 30
0
 70
     0
  0
VERTEX
  8
1
 62
    14
 10
-34.8335
 20
15.3545
 30
0
 70
     0
  0
VERTEX
  8
1
 62
    14
 10
-34.4325
 20
15.3545
 30
0
 70
     0
  0
VERTEX
  8
1
 62
    14
 10
-33.9203
 20
15.3545
 30
0
 70
     0
  0
VERTEX
  8
1
 62
    14
 10
-33.1507
 20
15.3545
 30
0
 70
     0
  0
VERTEX
  8
1
 62
    14
 10
-32.8689
 20
15.3545
 30
0
 70
     0
  0
SEQEND
  0
POLYLINE
  8
1
 62
    14
 66
     1
 10
0
 20
0
 30
0
 70
     0
  0
VERTEX
  8
1
 62
    14
 10
-38.4346
 20
16.3545
 30
0
 70
     0
  0
VERTEX
  8
1
 62
    14
 10
-38.4121
 20
16.3545
 30
0
 70
     0
  0
VERTEX
  8
1
 62
    14
 10
-37.9004
 20
16.3545
 30
0
 70
     0
  0
VERTEX
  8
1
 62
    14
 10
-37.6038
 20
16.3545
 30
0
 70
     0
  0
VERTEX
  8
1
 62
    14
 10
-37.0662
 20
16.3545
 30
0
 70
     0
  0
VERTEX
  8
1
 62
    14
 10
-36.4304
 20
16.3545
 30
0
 70
     0
  0
VERTEX
  8
1
 62
    14
 10
-35.9195
 20
16.3545
 30
0
 70
     0
  0
VERTEX
  8
1
 62
    14
 10
-35.2112
 20
16.3545
 30
0
 70
     0
  0
VERTEX
  8
1
 62
    14
 10
-34.4967
 20
16.3545
 30
0
 70
     0
  0
VERTEX
  8
1
 62
    14
 10
-34.0906
 20
16.3545
 30
0
 70
     0
  0
VERTEX
  8
1
 62
    14
 10
-33.1194
 20
16.3545
 30
0
 70
     0
  0
VERTEX
  8
1
 62
    14
 10
-32.8888
 20
16.3545
 30
0
 70
     0
  0
SEQEND
  0
POLYLINE
  8
1
 62
    14
 66
     1
 10
0
 20
0
 30
0
 70
     0
  0
VERTEX
  8
1
 62
    14
 10
-37.1891
 20
17.3545
 30
0
 70
     0
  0
VERTEX
  8
1
 62
    14
 10
-37.0626
 20
17.3545
 30
0
 70
     0
  0
VERTEX
  8
1
 62
    14
 10
-35.937
 20
17.3545
 30
0
 70
     0
  0
VERTEX
  8
1
 62
    14
 10
-35.8763
 20
17.3545
 30
0
 70
     0
  0
VERTEX
  8
1
 62
    14
 10
-34.5362
 20
17.3545
 30
0
 70
     0
  0
VERTEX
  8
1
 62
    14
 10
-34.5263
 20
17.3545
 30
0
 70
     0
  0
VERTEX
  8
1
 62
    14
 10
-33.3193
 20
17.3545
 30
0
 70
     0
  0
VERTEX
  8
1
 62
    14
 10
-32.8962
 20
17.3545
 30
0
 70
     0
  0
SEQEND
  0
POLYLINE
  8
1
 62
    14
 66
     1
 10
0
 20
0
 30
0
 70
     0
  0
VERTEX
  8
1
 62
    14
 10
-35.2966
 20
18.3545
 30
0
 70
     0
  0
VERTEX
  8
1
 62
    14
 10
-34.5263
 20
18.3545
 30
0
 70
     0
  0
VERTEX
  8
1
 62
    14
 10
-33.8341
 20
18.3545
 30
0
 70
     0
  0
VERTEX
  8
1
 62
    14
 10
-32.8953
 20
18.3545
 30
0
 70
     0
  0
SEQEND
  0
POLYLINE
  8
1
 62
    14
 66
     1
 10
0
 20
0
 30
0
 70
     0
  0
VERTEX
  8
1
 62
    14
 10
-33.1273
 20
19.3545
 30
0
 70
     0
  0
VERTEX
  8
1
 62
    14
 10
-32.888
 20
19.3545
 30
0
 70
     0
  0
SEQEND
  0
POLYLINE
  8
1
 62
    14
 66
     1
 10
0
 20
0
 30
0
 70
     0
  0
VERTEX
  8
1
 62
    14
 10
-33.1769
 20
9.35454
 30
0
 70
     0
  0
VERTEX
  8
1
 62
    14
 10
-33.1092
 20
9.35454
 30
0
 70
     0
  0
VERTEX
  8
1
 62
    14
 10
-33.0415
 20
9.35454
 30
0
 70
     0
  0
VERTEX
  8
1
 62
    14
 10
-32.9738
 20
9.35454
 30
0
 70
     0
  0
VERTEX
  8
1
 62
    14
 10
-32.9061
 20
9.35454
 30
0
 70
     0
  0
VERTEX
  8
1
 62
    14
 10
-32.8384
 20
9.35454
 30
0
 70
     0
  0
VERTEX
  8
1
 62
    14
 10
-32.7707
 20
9.35454
 30
0
 70
     0
  0
VERTEX
  8
1
 62
    14
 10
-32.7031
 20
9.35454
 30
0
 70
     0
  0
VERTEX
  8
1
 62
    14
 10
-32.6354
 20
9.35454
 30
0
 70
     0
  0
VERTEX
  8
1
 62
    14
 10
-32.5677
 20
9.35454
 30
0
 70
     0
  0
VERTEX
  8
1
 62
    14
 10
-32.5
 20
9.35454
 30
0
 70
     0
  0
SEQEND
  0
POLYLINE
  8
1
 62
    14
 66
     1
 10
0
 20
0
 30
0
 70
     0
  0
VERTEX
  8
1
 62
    14
 10
-32.8886
 20
10.3545
 30
0
 70
     0
  0
VERTEX
  8
1
 62
    14
 10
-32.8497
 20
10.3545
 30
0
 70
     0
  0
VERTEX
  8
1
 62
    14
 10
-32.8109
 20
10.3545
 30
0
 70
     0
  0
VERTEX
  8
1
 62
    14
 10
-32.772
 20
10.3545
 30
0
 70
     0
  0
VERTEX
  8
1
 62
    14
 10
-32.7332
 20
10.3545
 30
0
 70
     0
  0
VERTEX
  8
1
 62
    14
 10
-32.6943
 20
10.3545
 30
0
 70
     0
  0
VERTEX
  8
1
 62
    14
 10
-32.6554
 20
10.3545
 30
0
 70
     0
  0
VERTEX
  8
1
 62
    14
 10
-32.6166
 20
10.3545
 30
0
 70
     0
  0
VERTEX
  8
1
 62
    14
 10
-32.5777
 20
10.3545
 30
0
 70
     0
  0
VERTEX
  8
1
 62
    14
 10
-32.5389
 20
10.3545
 30
0
 70
     0
  0
VERTEX
  8
1
 62
    14
 10
-32.5
 20
10.3545
 30
0
 70
     0
  0
SEQEND
  0
POLYLINE
  8
1
 62
    14
 66
     1
 10
0
 20
0
 30
0
 70
     0
  0
VERTEX
  8
1
 62
    14
 10
-32.6676
 20
11.3545
 30
0
 70
     0
  0
VERTEX
  8
1
 62
    14
 10
-32.6508
 20
11.3545
 30
0
 70
     0
  0
VERTEX
  8
1
 62
    14
 10
-32.6341
 20
11.3545
 30
0
 70
     0
  0
VERTEX
  8
1
 62
    14
 10
-32.6173
 20
11.3545
 30
0
 70
     0
  0
VERTEX
  8
1
 62
    14
 10
-32.6006
 20
11.3545
 30
0
 70
     0
  0
VERTEX
  8
1
 62
    14
 10
-32.5838
 20
11.3545
 30
0
 70
     0
  0
VERTEX
  8
1
 62
    14
 10
-32.567
 20
11.3545
 30
0
 70
     0
  0
VERTEX
  8
1
 62
    14
 10
-32.5503
 20
11.3545
 30
0
 70
     0
  0
VERTEX
  8
1
 62
    14
 10
-32.5335
 20
11.3545
 30
0
 70
     0
  0
VERTEX
  8
1
 62
    14
 10
-32.5168
 20
11.3545
 30
0
 70
     0
  0
VERTEX
  8
1
 62
    14
 10
-32.5
 20
11.3545
 30
0
 70
     0
  0
SEQEND
  0
POLYLINE
  8
1
 62
    14
 66
     1
 10
0
 20
0
 30
0
 70
     0
  0
VERTEX
  8
1
 62
    14
 10
-32.5382
 20
12.3545
 30
0
 70
     0
  0
VERTEX
  8
1
 62
    14
 10
-32.5344
 20
12.3545
 30
0
 70
     0
  0
VERTEX
  8
1
 62
    14
 10
-32.5305
 20
12.3545
 30
0
 70
     0
  0
VERTEX
  8
1
 62
    14
 10
-32.5267
 20
12.3545
 30
0
 70
     0
  0
VERTEX
  8
1
 62
    14
 10
-32.5229
 20
12.3545
 30
0
 70
     0
  0
VERTEX
  8
1
 62
    14
 10
-32.5191
 20
12.3545
 30
0
 70
     0
  0
VERTEX
  8
1
 62
    14
 10
-32.5153
 20
12.3545
 30
0
 70
     0
  0
VERTEX
  8
1
 62
    14
 10
-32.5115
 20
12.3545
 30
0
 70
     0
  0
VERTEX
  8
1
 62
    14
 10
-32.5076
 20
12.3545
 30
0
 70
     0
  0
VERTEX
  8
1
 62
    14
 10
-32.5038
 20
12.3545
 30
0
 70
     0
  0
VERTEX
  8
1
 62
    14
 10
-32.5
 20
12.3545
 30
0
 70
     0
  0
SEQEND
  0
POLYLINE
  8
2
 62
    15
 66
     1
 10
0
 20
0
 30
0
 70
     0
  0
VERTEX
  8
2
 62
    15
 10
3.25
 20
0
 30
0
 70
     0
  0
VERTEX
  8
2
 62
    15
 10
-68.25
 20
0
 30
0
 70
     0
  0
SEQEND
  0
POLYLINE
  8
2
 62
    15
 66
     1
 10
0
 20
0
 30
0
 70
     0
  0
VERTEX
  8
2
 62
    15
 10
0
 20
0.254
 30
0
 70
     0
  0
VERTEX
  8
2
 62
    15
 10
-3.18125
 20
-0.52986
 30
0
 70
     0
  0
VERTEX
  8
2
 62
    15
 10
-6.38995
 20
-1.18569
 30
0
 70
     0
  0
VERTEX
  8
2
 62
    15
 10
-9.62032
 20
-1.72714
 30
0
 70
     0
  0
VERTEX
  8
2
 62
    15
 10
-12.8666
 20
-2.16787
 30
0
 70
     0
  0
VERTEX
  8
2
 62
    15
 10
-16.1234
 20
-2.52062
 30
0
 70
     0
  0
VERTEX
  8
2
 62
    15
 10
-19.3878
 20
-2.79394
 30
0
 70
     0
  0
VERTEX
  8
2
 62
    15
 10
-22.6575
 20
-2.99438
 30
0
 70
     0
  0
VERTEX
  8
2
 62
    15
 10
-25.9308
 20
-3.12498
 30
0
 70
     0
  0
VERTEX
  8
2
 62
    15
 10
-29.2061
 20
-3.18745
 30
0
 70
     0
  0
VERTEX
  8
2
 62
    15
 10
-32.4818
 20
-3.18222
 30
0
 70
     0
  0
VERTEX
  8
2
 62
    15
 10
-35.7566
 20
-3.10954
 30
0
 70
     0
  0
VERTEX
  8
2
 62
    15
 10
-39.0291
 20
-2.97047
 30
0
 70
     0
  0
VERTEX
  8
2
 62
    15
 10
-42.298
 20
-2.76641
 30
0
 70
     0
  0
VERTEX
  8
2
 62
    15
 10
-45.562
 20
-2.49935
 30
0
 70
     0
  0
VERTEX
  8
2
 62
    15
 10
-48.8202
 20
-2.17157
 30
0
 70
     0
  0
VERTEX
  8
2
 62
    15
 10
-52.0718
 20
-1.78587
 30
0
 70
     0
  0
VERTEX
  8
2
 62
    15
 10
-55.3162
 20
-1.34467
 30
0
 70
     0
  0
VERTEX
  8
2
 62
    15
 10
-58.5528
 20
-0.84845
 30
0
 70
     0
  0
VERTEX
  8
2
 62
    15
 10
-61.781
 20
-0.29722
 30
0
 70
     0
  0
VERTEX
  8
2
 62
    15
 10
-65
 20
0.309
 30
0
 70
     0
  0
SEQEND
  0
POLYLINE
  8
2
 62
    15
 66
     1
 10
0
 20
0
 30
0
 70
     0
  0
VERTEX
  8
2
 62
    15
 10
0
 20
0.254
 30
0
 70
     0
  0
VERTEX
  8
2
 62
    15
 10
-3.18144
 20
-0.5299
 30
0
 70
     0
  0
VERTEX
  8
2
 62
    15
 10
-6.39017
 20
-1.18573
 30
0
 70
     0
  0
VERTEX
  8
2
 62
    15
 10
-9.62041
 20
-1.72715
 30
0
 70
     0
  0
VERTEX
  8
2
 62
    15
 10
-12.8664
 20
-2.16785
 30
0
 70
     0
  0
VERTEX
  8
2
 62
    15
 10
-16.1228
 20
-2.52056
 30
0
 70
     0
  0
VERTEX
  8
2
 62
    15
 10
-19.3867
 20
-2.79385
 30
0
 70
     0
  0
VERTEX
  8
2
 62
    15
 10
-22.6558
 20
-2.9943
 30
0
 70
     0
  0
VERTEX
  8
2
 62
    15
 10
-25.9286
 20
-3.12491
 30
0
 70
     0
  0
VERTEX
  8
2
 62
    15
 10
-29.2033
 20
-3.18743
 30
0
 70
     0
  0
VERTEX
  8
2
 62
    15
 10
-32.4786
 20
-3.18226
 30
0
 70
     0
  0
VERTEX
  8
2
 62
    15
 10
-35.7531
 20
-3.10966
 30
0
 70
     0
  0
VERTEX
  8
2
 62
    15
 10
-39.0254
 20
-2.97067
 30
0
 70
     0
  0
VERTEX
  8
2
 62
    15
 10
-42.2943
 20
-2.76667
 30
0
 70
     0
  0
VERTEX
  8
2
 62
    15
 10
-45.5587
 20
-2.49965
 30
0
 70
     0
  0
VERTEX
  8
2
 62
    15
 10
-48.8175
 20
-2.17186
 30
0
 70
     0
  0
VERTEX
  8
2
 62
    15
 10
-52.07
 20
-1.7861
 30
0
 70
     0
  0
VERTEX
  8
2
 62
    15
 10
-55.3154
 20
-1.34479
 30
0
 70
     0
  0
VERTEX
  8
2
 62
    15
 10
-58.5528
 20
-0.84845
 30
0
 70
     0
  0
VERTEX
  8
2
 62
    15
 10
-61.7813
 20
-0.29716
 30
0
 70
     0
  0
VERTEX
  8
2
 62
    15
 10
-65
 20
0.309
 30
0
 70
     0
  0
SEQEND
  0
POLYLINE
  8
2
 62
    15
 66
     1
 10
0
 20
0
 30
0
 70
     0
  0
VERTEX
  8
2
 62
    15
 10
0
 20
0.254
 30
0
 70
     0
  0
VERTEX
  8
2
 62
    15
 10
0
 20
0.254
 30
0
 70
     0
  0
VERTEX
  8
2
 62
    15
 10
0
 20
0.254
 30
0
 70
     0
  0
VERTEX
  8
2
 62
    15
 10
0
 20
0.254
 30
0
 70
     0
  0
VERTEX
  8
2
 62
    15
 10
0
 20
0.254
 30
0
 70
     0
  0
VERTEX
  8
2
 62
    15
 10
0
 20
0.254
 30
0
 70
     0
  0
VERTEX
  8
2
 62
    15
 10
0
 20
0.254
 30
0
 70
     0
  0
VERTEX
  8
2
 62
    15
 10
0
 20
0.254
 30
0
 70
     0
  0
VERTEX
  8
2
 62
    15
 10
0
 20
0.254
 30
0
 70
     0
  0
VERTEX
  8
2
 62
    15
 10
0
 20
0.254
 30
0
 70
     0
  0
VERTEX
  8
2
 62
    15
 10
0
 20
0.254
 30
0
 70
     0
  0
SEQEND
  0
POLYLINE
  8
2
 62
    15
 66
     1
 10
0
 20
0
 30
0
 70
     0
  0
VERTEX
  8
2
 62
    15
 10
-65
 20
0.309
 30
0
 70
     0
  0
VERTEX
  8
2
 62
    15
 10
-65
 20
0.309
 30
0
 70
     0
  0
VERTEX
  8
2
 62
    15
 10
-65
 20
0.309
 30
0
 70
     0
  0
VERTEX
  8
2
 62
    15
 10
-65
 20
0.309
 30
0
 70
     0
  0
VERTEX
  8
2
 62
    15
 10
-65
 20
0.309
 30
0
 70
     0
  0
VERTEX
  8
2
 62
    15
 10
-65
 20
0.309
 30
0
 70
     0
  0
VERTEX
  8
2
 62
    15
 10
-65
 20
0.309
 30
0
 70
     0
  0
VERTEX
  8
2
 62
    15
 10
-65
 20
0.309
 30
0
 70
     0
  0
VERTEX
  8
2
 62
    15
 10
-65
 20
0.309
 30
0
 70
     0
  0
VERTEX
  8
2
 62
    15
 10
-65
 20
0.309
 30
0
 70
     0
  0
VERTEX
  8
2
 62
    15
 10
-65
 20
0.309
 30
0
 70
     0
  0
SEQEND
  0
POLYLINE
  8
2
 62
     3
 66
     1
 10
0
 20
0
 30
0
 70
     0
  0
VERTEX
  8
2
 62
     3
 10
0
 20
2.325
 30
0
 70
     0
  0
VERTEX
  8
2
 62
     3
 10
0
 20
2.12308
 30
0
 70
     0
  0
VERTEX
  8
2
 62
     3
 10
0
 20
1.93151
 30
0
 70
     0
  0
VERTEX
  8
2
 62
     3
 10
0
 20
1.7503
 30
0
 70
     0
  0
VERTEX
  8
2
 62
     3
 10
0
 20
1.57944
 30
0
 70
     0
  0
VERTEX
  8
2
 62
     3
 10
0
 20
1.41894
 30
0
 70
     0
  0
VERTEX
  8
2
 62
     3
 10
0
 20
1.26879
 30
0
 70
     0
  0
VERTEX
  8
2
 62
     3
 10
0
 20
1.129
 30
0
 70
     0
  0
VERTEX
  8
2
 62
     3
 10
0
 20
0.99956
 30
0
 70
     0
  0
VERTEX
  8
2
 62
     3
 10
0
 20
0.88048
 30
0
 70
     0
  0
VERTEX
  8
2
 62
     3
 10
0
 20
0.77175
 30
0
 70
     0
  0
VERTEX
  8
2
 62
     3
 10
0
 20
0.67338
 30
0
 70
     0
  0
VERTEX
  8
2
 62
     3
 10
0
 20
0.58536
 30
0
 70
     0
  0
VERTEX
  8
2
 62
     3
 10
0
 20
0.5077
 30
0
 70
     0
  0
VERTEX
  8
2
 62
     3
 10
0
 20
0.44039
 30
0
 70
     0
  0
VERTEX
  8
2
 62
     3
 10
0
 20
0.38344
 30
0
 70
     0
  0
VERTEX
  8
2
 62
     3
 10
0
 20
0.33684
 30
0
 70
     0
  0
VERTEX
  8
2
 62
     3
 10
0
 20
0.3006
 30
0
 70
     0
  0
VERTEX
  8
2
 62
     3
 10
0
 20
0.27471
 30
0
 70
     0
  0
VERTEX
  8
2
 62
     3
 10
0
 20
0.25918
 30
0
 70
     0
  0
VERTEX
  8
2
 62
     3
 10
0
 20
0.254
 30
0
 70
     0
  0
SEQEND
  0
POLYLINE
  8
2
 62
     3
 66
     1
 10
0
 20
0
 30
0
 70
     0
  0
VERTEX
  8
2
 62
     3
 10
-65
 20
7.108
 30
0
 70
     0
  0
VERTEX
  8
2
 62
     3
 10
-65
 20
6.4451
 30
0
 70
     0
  0
VERTEX
  8
2
 62
     3
 10
-65
 20
5.81619
 30
0
 70
     0
  0
VERTEX
  8
2
 62
     3
 10
-65
 20
5.22128
 30
0
 70
     0
  0
VERTEX
  8
2
 62
     3
 10
-65
 20
4.66036
 30
0
 70
     0
  0
VERTEX
  8
2
 62
     3
 10
-65
 20
4.13344
 30
0
 70
     0
  0
VERTEX
  8
2
 62
     3
 10
-65
 20
3.64051
 30
0
 70
     0
  0
VERTEX
  8
2
 62
     3
 10
-65
 20
3.18158
 30
0
 70
     0
  0
VERTEX
  8
2
 62
     3
 10
-65
 20
2.75664
 30
0
 70
     0
  0
VERTEX
  8
2
 62
     3
 10
-65
 20
2.3657
 30
0
 70
     0
  0
VERTEX
  8
2
 62
     3
 10
-65
 20
2.00875
 30
0
 70
     0
  0
VERTEX
  8
2
 62
     3
 10
-65
 20
1.6858
 30
0
 70
     0
  0
VERTEX
  8
2
 62
     3
 10
-65
 20
1.39684
 30
0
 70
     0
  0
VERTEX
  8
2
 62
     3
 10
-65
 20
1.14188
 30
0
 70
     0
  0
VERTEX
  8
2
 62
     3
 10
-65
 20
0.92091
 30
0
 70
     0
  0
VERTEX
  8
2
 62
     3
 10
-65
 20
0.73394
 30
0
 70
     0
  0
VERTEX
  8
2
 62
     3
 10
-65
 20
0.58096
 30
0
 70
     0
  0
VERTEX
  8
2
 62
     3
 10
-65
 20
0.46198
 30
0
 70
     0
  0
VERTEX
  8
2
 62
     3
 10
-65
 20
0.37699
 30
0
 70
     0
  0
VERTEX
  8
2
 62
     3
 10
-65
 20
0.326
 30
0
 70
     0
  0
VERTEX
  8
2
 62
     3
 10
-65
 20
0.309
 30
0
 70
     0
  0
SEQEND
  0
POLYLINE
  8
2
 62
     3
 66
     1
 10
0
 20
0
 30
0
 70
     0
  0
VERTEX
  8
2
 62
     3
 10
0
 20
2.325
 30
0
 70
     0
  0
VERTEX
  8
2
 62
     3
 10
-6.49983
 20
2.60899
 30
0
 70
     0
  0
VERTEX
  8
2
 62
     3
 10
-13.0349
 20
2.91369
 30
0
 70
     0
  0
VERTEX
  8
2
 62
     3
 10
-19.597
 20
3.24722
 30
0
 70
     0
  0
VERTEX
  8
2
 62
     3
 10
-26.1718
 20
3.62346
 30
0
 70
     0
  0
VERTEX
  8
2
 62
     3
 10
-32.7422
 20
4.05077
 30
0
 70
     0
  0
VERTEX
  8
2
 62
     3
 10
-39.291
 20
4.53593
 30
0
 70
     0
  0
VERTEX
  8
2
 62
     3
 10
-45.8021
 20
5.08393
 30
0
 70
     0
  0
VERTEX
  8
2
 62
     3
 10
-52.2618
 20
5.6962
 30
0
 70
     0
  0
VERTEX
  8
2
 62
     3
 10
-58.6616
 20
6.37291
 30
0
 70
     0
  0
VERTEX
  8
2
 62
     3
 10
-65
 20
7.108
 30
0
 70
     0
  0
SEQEND
  0
POLYLINE
  8
2
 62
     3
 66
     1
 10
0
 20
0
 30
0
 70
     0
  0
VERTEX
  8
2
 62
     3
 10
0
 20
0.254
 30
0
 70
     0
  0
VERTEX
  8
2
 62
     3
 10
-6.39003
 20
-1.18551
 30
0
 70
     0
  0
VERTEX
  8
2
 62
     3
 10
-12.8666
 20
-2.16782
 30
0
 70
     0
  0
VERTEX
  8
2
 62
     3
 10
-19.3878
 20
-2.79391
 30
0
 70
     0
  0
VERTEX
  8
2
 62
     3
 10
-25.9308
 20
-3.12498
 30
0
 70
     0
  0
VERTEX
  8
2
 62
     3
 10
-32.4818
 20
-3.18222
 30
0
 70
     0
  0
VERTEX
  8
2
 62
     3
 10
-39.0291
 20
-2.97047
 30
0
 70
     0
  0
VERTEX
  8
2
 62
     3
 10
-45.562
 20
-2.49936
 30
0
 70
     0
  0
VERTEX
  8
2
 62
     3
 10
-52.0718
 20
-1.78588
 30
0
 70
     0
  0
VERTEX
  8
2
 62
     3
 10
-58.5528
 20
-0.84845
 30
0
 70
     0
  0
VERTEX
  8
2
 62
     3
 10
-65
 20
0.309
 30
0
 70
     0
  0
SEQEND
  0
POLYLINE
  8
2
 62
    11
 66
     1
 10
0
 20
0
 30
0
 70
     0
  0
VERTEX
  8
2
 62
    11
 10
-3E-005
 20
2.325
 30
0
 70
     0
  0
VERTEX
  8
2
 62
    11
 10
-3E-005
 20
2.12308
 30
0
 70
     0
  0
VERTEX
  8
2
 62
    11
 10
-3E-005
 20
1.93151
 30
0
 70
     0
  0
VERTEX
  8
2
 62
    11
 10
-3E-005
 20
1.7503
 30
0
 70
     0
  0
VERTEX
  8
2
 62
    11
 10
-3E-005
 20
1.57944
 30
0
 70
     0
  0
VERTEX
  8
2
 62
    11
 10
-3E-005
 20
1.41894
 30
0
 70
     0
  0
VERTEX
  8
2
 62
    11
 10
-3E-005
 20
1.26879
 30
0
 70
     0
  0
VERTEX
  8
2
 62
    11
 10
-3E-005
 20
1.12899
 30
0
 70
     0
  0
VERTEX
  8
2
 62
    11
 10
-3E-005
 20
0.99956
 30
0
 70
     0
  0
VERTEX
  8
2
 62
    11
 10
-3E-005
 20
0.88047
 30
0
 70
     0
  0
VERTEX
  8
2
 62
    11
 10
-3E-005
 20
0.77175
 30
0
 70
     0
  0
VERTEX
  8
2
 62
    11
 10
-3E-005
 20
0.67337
 30
0
 70
     0
  0
VERTEX
  8
2
 62
    11
 10
-3E-005
 20
0.58535
 30
0
 70
     0
  0
VERTEX
  8
2
 62
    11
 10
-3E-005
 20
0.50769
 30
0
 70
     0
  0
VERTEX
  8
2
 62
    11
 10
-3E-005
 20
0.44038
 30
0
 70
     0
  0
VERTEX
  8
2
 62
    11
 10
-3E-005
 20
0.38343
 30
0
 70
     0
  0
VERTEX
  8
2
 62
    11
 10
-3E-005
 20
0.33683
 30
0
 70
     0
  0
VERTEX
  8
2
 62
    11
 10
-3E-005
 20
0.30059
 30
0
 70
     0
  0
VERTEX
  8
2
 62
    11
 10
-3E-005
 20
0.2747
 30
0
 70
     0
  0
VERTEX
  8
2
 62
    11
 10
-3E-005
 20
0.25917
 30
0
 70
     0
  0
VERTEX
  8
2
 62
    11
 10
-3E-005
 20
0.25399
 30
0
 70
     0
  0
SEQEND
  0
POLYLINE
  8
2
 62
    11
 66
     1
 10
0
 20
0
 30
0
 70
     0
  0
VERTEX
  8
2
 62
    11
 10
-6.5
 20
2.609
 30
0
 70
     0
  0
VERTEX
  8
2
 62
    11
 10
-6.5
 20
2.23964
 30
0
 70
     0
  0
VERTEX
  8
2
 62
    11
 10
-6.5
 20
1.88876
 30
0
 70
     0
  0
VERTEX
  8
2
 62
    11
 10
-6.5
 20
1.55646
 30
0
 70
     0
  0
VERTEX
  8
2
 62
    11
 10
-6.5
 20
1.24279
 30
0
 70
     0
  0
VERTEX
  8
2
 62
    11
 10
-6.5
 20
0.94781
 30
0
 70
     0
  0
VERTEX
  8
2
 62
    11
 10
-6.5
 20
0.6716
 30
0
 70
     0
  0
VERTEX
  8
2
 62
    11
 10
-6.5
 20
0.41419
 30
0
 70
     0
  0
VERTEX
  8
2
 62
    11
 10
-6.5
 20
0.17565
 30
0
 70
     0
  0
VERTEX
  8
2
 62
    11
 10
-6.5
 20
-0.04398
 30
0
 70
     0
  0
VERTEX
  8
2
 62
    11
 10
-6.5
 20
-0.24465
 30
0
 70
     0
  0
VERTEX
  8
2
 62
    11
 10
-6.5
 20
-0.42632
 30
0
 70
     0
  0
VERTEX
  8
2
 62
    11
 10
-6.5
 20
-0.58897
 30
0
 70
     0
  0
VERTEX
  8
2
 62
    11
 10
-6.5
 20
-0.73256
 30
0
 70
     0
  0
VERTEX
  8
2
 62
    11
 10
-6.5
 20
-0.85705
 30
0
 70
     0
  0
VERTEX
  8
2
 62
    11
 10
-6.5
 20
-0.96244
 30
0
 70
     0
  0
VERTEX
  8
2
 62
    11
 10
-6.5
 20
-1.04869
 30
0
 70
     0
  0
VERTEX
  8
2
 62
    11
 10
-6.5
 20
-1.1158
 30
0
 70
     0
  0
VERTEX
  8
2
 62
    11
 10
-6.5
 20
-1.16376
 30
0
 70
     0
  0
VERTEX
  8
2
 62
    11
 10
-6.5
 20
-1.19255
 30
0
 70
     0
  0
VERTEX
  8
2
 62
    11
 10
-6.5
 20
-1.20219
 30
0
 70
     0
  0
SEQEND
  0
POLYLINE
  8
2
 62
    11
 66
     1
 10
0
 20
0
 30
0
 70
     0
  0
VERTEX
  8
2
 62
    11
 10
-13
 20
2.91206
 30
0
 70
     0
  0
VERTEX
  8
2
 62
    11
 10
-13
 20
2.41774
 30
0
 70
     0
  0
VERTEX
  8
2
 62
    11
 10
-13
 20
1.94818
 30
0
 70
     0
  0
VERTEX
  8
2
 62
    11
 10
-13
 20
1.85888
 30
0
 70
     0
  0
VERTEX
  8
2
 62
    11
 10
-13
 20
1.50369
 30
0
 70
     0
  0
VERTEX
  8
2
 62
    11
 10
-13
 20
1.08429
 30
0
 70
     0
  0
VERTEX
  8
2
 62
    11
 10
-13
 20
0.69001
 30
0
 70
     0
  0
VERTEX
  8
2
 62
    11
 10
-13
 20
0.3209
 30
0
 70
     0
  0
VERTEX
  8
2
 62
    11
 10
-13
 20
-0.02299
 30
0
 70
     0
  0
VERTEX
  8
2
 62
    11
 10
-13
 20
-0.34161
 30
0
 70
     0
  0
VERTEX
  8
2
 62
    11
 10
-13
 20
-0.63491
 30
0
 70
     0
  0
VERTEX
  8
2
 62
    11
 10
-13
 20
-0.90285
 30
0
 70
     0
  0
VERTEX
  8
2
 62
    11
 10
-13
 20
-1.14539
 30
0
 70
     0
  0
VERTEX
  8
2
 62
    11
 10
-13
 20
-1.36249
 30
0
 70
     0
  0
VERTEX
  8
2
 62
    11
 10
-13
 20
-1.55412
 30
0
 70
     0
  0
VERTEX
  8
2
 62
    11
 10
-13
 20
-1.72026
 30
0
 70
     0
  0
VERTEX
  8
2
 62
    11
 10
-13
 20
-1.86088
 30
0
 70
     0
  0
VERTEX
  8
2
 62
    11
 10
-13
 20
-1.97597
 30
0
 70
     0
  0
VERTEX
  8
2
 62
    11
 10
-13
 20
-2.06549
 30
0
 70
     0
  0
VERTEX
  8
2
 62
    11
 10
-13
 20
-2.12945
 30
0
 70
     0
  0
VERTEX
  8
2
 62
    11
 10
-13
 20
-2.16783
 30
0
 70
     0
  0
VERTEX
  8
2
 62
    11
 10
-13
 20
-2.18063
 30
0
 70
     0
  0
SEQEND
  0
POLYLINE
  8
2
 62
    11
 66
     1
 10
0
 20
0
 30
0
 70
     0
  0
VERTEX
  8
2
 62
    11
 10
-19.5
 20
3.24228
 30
0
 70
     0
  0
VERTEX
  8
2
 62
    11
 10
-19.5
 20
2.65494
 30
0
 70
     0
  0
VERTEX
  8
2
 62
    11
 10
-19.5
 20
2.09731
 30
0
 70
     0
  0
VERTEX
  8
2
 62
    11
 10
-19.5
 20
1.56946
 30
0
 70
     0
  0
VERTEX
  8
2
 62
    11
 10
-19.5
 20
1.07143
 30
0
 70
     0
  0
VERTEX
  8
2
 62
    11
 10
-19.5
 20
0.6033
 30
0
 70
     0
  0
VERTEX
  8
2
 62
    11
 10
-19.5
 20
0.16509
 30
0
 70
     0
  0
VERTEX
  8
2
 62
    11
 10
-19.5
 20
-0.13823
 30
0
 70
     0
  0
VERTEX
  8
2
 62
    11
 10
-19.5
 20
-0.24304
 30
0
 70
     0
  0
VERTEX
  8
2
 62
    11
 10
-19.5
 20
-0.62085
 30
0
 70
     0
  0
VERTEX
  8
2
 62
    11
 10
-19.5
 20
-0.96856
 30
0
 70
     0
  0
VERTEX
  8
2
 62
    11
 10
-19.5
 20
-1.28614
 30
0
 70
     0
  0
VERTEX
  8
2
 62
    11
 10
-19.5
 20
-1.57355
 30
0
 70
     0
  0
VERTEX
  8
2
 62
    11
 10
-19.5
 20
-1.83079
 30
0
 70
     0
  0
VERTEX
  8
2
 62
    11
 10
-19.5
 20
-2.05781
 30
0
 70
     0
  0
VERTEX
  8
2
 62
    11
 10
-19.5
 20
-2.25461
 30
0
 70
     0
  0
VERTEX
  8
2
 62
    11
 10
-19.5
 20
-2.42115
 30
0
 70
     0
  0
VERTEX
  8
2
 62
    11
 10
-19.5
 20
-2.55743
 30
0
 70
     0
  0
VERTEX
  8
2
 62
    11
 10
-19.5
 20
-2.66343
 30
0
 70
     0
  0
VERTEX
  8
2
 62
    11
 10
-19.5
 20
-2.73913
 30
0
 70
     0
  0
VERTEX
  8
2
 62
    11
 10
-19.5
 20
-2.78452
 30
0
 70
     0
  0
VERTEX
  8
2
 62
    11
 10
-19.5
 20
-2.79959
 30
0
 70
     0
  0
SEQEND
  0
POLYLINE
  8
2
 62
    11
 66
     1
 10
0
 20
0
 30
0
 70
     0
  0
VERTEX
  8
2
 62
    11
 10
-26
 20
3.61363
 30
0
 70
     0
  0
VERTEX
  8
2
 62
    11
 10
-26
 20
2.95775
 30
0
 70
     0
  0
VERTEX
  8
2
 62
    11
 10
-26
 20
2.3353
 30
0
 70
     0
  0
VERTEX
  8
2
 62
    11
 10
-26
 20
1.7463
 30
0
 70
     0
  0
VERTEX
  8
2
 62
    11
 10
-26
 20
1.19075
 30
0
 70
     0
  0
VERTEX
  8
2
 62
    11
 10
-26
 20
0.6687
 30
0
 70
     0
  0
VERTEX
  8
2
 62
    11
 10
-26
 20
0.18017
 30
0
 70
     0
  0
VERTEX
  8
2
 62
    11
 10
-26
 20
-0.27483
 30
0
 70
     0
  0
VERTEX
  8
2
 62
    11
 10
-26
 20
-0.69627
 30
0
 70
     0
  0
VERTEX
  8
2
 62
    11
 10
-26
 20
-1.08413
 30
0
 70
     0
  0
VERTEX
  8
2
 62
    11
 10
-26
 20
-1.43839
 30
0
 70
     0
  0
VERTEX
  8
2
 62
    11
 10
-26
 20
-1.75903
 30
0
 70
     0
  0
VERTEX
  8
2
 62
    11
 10
-26
 20
-2.04603
 30
0
 70
     0
  0
VERTEX
  8
2
 62
    11
 10
-26
 20
-2.29936
 30
0
 70
     0
  0
VERTEX
  8
2
 62
    11
 10
-26
 20
-2.50546
 30
0
 70
     0
  0
VERTEX
  8
2
 62
    11
 10
-26
 20
-2.51898
 30
0
 70
     0
  0
VERTEX
  8
2
 62
    11
 10
-26
 20
-2.70446
 30
0
 70
     0
  0
VERTEX
  8
2
 62
    11
 10
-26
 20
-2.85621
 30
0
 70
     0
  0
VERTEX
  8
2
 62
    11
 10
-26
 20
-2.97421
 30
0
 70
     0
  0
VERTEX
  8
2
 62
    11
 10
-26
 20
-3.05844
 30
0
 70
     0
  0
VERTEX
  8
2
 62
    11
 10
-26
 20
-3.10891
 30
0
 70
     0
  0
VERTEX
  8
2
 62
    11
 10
-26
 20
-3.12558
 30
0
 70
     0
  0
SEQEND
  0
POLYLINE
  8
2
 62
    11
 66
     1
 10
0
 20
0
 30
0
 70
     0
  0
VERTEX
  8
2
 62
    11
 10
-32.5
 20
4.03502
 30
0
 70
     0
  0
VERTEX
  8
2
 62
    11
 10
-32.5
 20
3.33222
 30
0
 70
     0
  0
VERTEX
  8
2
 62
    11
 10
-32.5
 20
2.66538
 30
0
 70
     0
  0
VERTEX
  8
2
 62
    11
 10
-32.5
 20
2.03452
 30
0
 70
     0
  0
VERTEX
  8
2
 62
    11
 10
-32.5
 20
1.43962
 30
0
 70
     0
  0
VERTEX
  8
2
 62
    11
 10
-32.5
 20
0.8807
 30
0
 70
     0
  0
VERTEX
  8
2
 62
    11
 10
-32.5
 20
0.35775
 30
0
 70
     0
  0
VERTEX
  8
2
 62
    11
 10
-32.5
 20
-0.12923
 30
0
 70
     0
  0
VERTEX
  8
2
 62
    11
 10
-32.5
 20
-0.58022
 30
0
 70
     0
  0
VERTEX
  8
2
 62
    11
 10
-32.5
 20
-0.99522
 30
0
 70
     0
  0
VERTEX
  8
2
 62
    11
 10
-32.5
 20
-1.37423
 30
0
 70
     0
  0
VERTEX
  8
2
 62
    11
 10
-32.5
 20
-1.71724
 30
0
 70
     0
  0
VERTEX
  8
2
 62
    11
 10
-32.5
 20
-2.02423
 30
0
 70
     0
  0
VERTEX
  8
2
 62
    11
 10
-32.5
 20
-2.29521
 30
0
 70
     0
  0
VERTEX
  8
2
 62
    11
 10
-32.5
 20
-2.53015
 30
0
 70
     0
  0
VERTEX
  8
2
 62
    11
 10
-32.5
 20
-2.72905
 30
0
 70
     0
  0
VERTEX
  8
2
 62
    11
 10
-32.5
 20
-2.89189
 30
0
 70
     0
  0
VERTEX
  8
2
 62
    11
 10
-32.5
 20
-3.01866
 30
0
 70
     0
  0
VERTEX
  8
2
 62
    11
 10
-32.5
 20
-3.10934
 30
0
 70
     0
  0
VERTEX
  8
2
 62
    11
 10
-32.5
 20
-3.16353
 30
0
 70
     0
  0
VERTEX
  8
2
 62
    11
 10
-32.5
 20
-3.16391
 30
0
 70
     0
  0
VERTEX
  8
2
 62
    11
 10
-32.5
 20
-3.18163
 30
0
 70
     0
  0
SEQEND
  0
POLYLINE
  8
2
 62
    11
 66
     1
 10
0
 20
0
 30
0
 70
     0
  0
VERTEX
  8
2
 62
    11
 10
-39
 20
4.51437
 30
0
 70
     0
  0
VERTEX
  8
2
 62
    11
 10
-39
 20
3.78506
 30
0
 70
     0
  0
VERTEX
  8
2
 62
    11
 10
-39
 20
3.09314
 30
0
 70
     0
  0
VERTEX
  8
2
 62
    11
 10
-39
 20
2.43861
 30
0
 70
     0
  0
VERTEX
  8
2
 62
    11
 10
-39
 20
1.82146
 30
0
 70
     0
  0
VERTEX
  8
2
 62
    11
 10
-39
 20
1.24168
 30
0
 70
     0
  0
VERTEX
  8
2
 62
    11
 10
-39
 20
0.69927
 30
0
 70
     0
  0
VERTEX
  8
2
 62
    11
 10
-39
 20
0.19421
 30
0
 70
     0
  0
VERTEX
  8
2
 62
    11
 10
-39
 20
-0.27348
 30
0
 70
     0
  0
VERTEX
  8
2
 62
    11
 10
-39
 20
-0.70382
 30
0
 70
     0
  0
VERTEX
  8
2
 62
    11
 10
-39
 20
-1.0968
 30
0
 70
     0
  0
VERTEX
  8
2
 62
    11
 10
-39
 20
-1.45243
 30
0
 70
     0
  0
VERTEX
  8
2
 62
    11
 10
-39
 20
-1.7707
 30
0
 70
     0
  0
VERTEX
  8
2
 62
    11
 10
-39
 20
-2.05161
 30
0
 70
     0
  0
VERTEX
  8
2
 62
    11
 10
-39
 20
-2.29516
 30
0
 70
     0
  0
VERTEX
  8
2
 62
    11
 10
-39
 20
-2.50134
 30
0
 70
     0
  0
VERTEX
  8
2
 62
    11
 10
-39
 20
-2.67014
 30
0
 70
     0
  0
VERTEX
  8
2
 62
    11
 10
-39
 20
-2.80156
 30
0
 70
     0
  0
VERTEX
  8
2
 62
    11
 10
-39
 20
-2.89558
 30
0
 70
     0
  0
VERTEX
  8
2
 62
    11
 10
-39
 20
-2.95221
 30
0
 70
     0
  0
VERTEX
  8
2
 62
    11
 10
-39
 20
-2.97142
 30
0
 70
     0
  0
SEQEND
  0
POLYLINE
  8
2
 62
    11
 66
     1
 10
0
 20
0
 30
0
 70
     0
  0
VERTEX
  8
2
 62
    11
 10
-45.5
 20
5.05851
 30
0
 70
     0
  0
VERTEX
  8
2
 62
    11
 10
-45.5
 20
4.32162
 30
0
 70
     0
  0
VERTEX
  8
2
 62
    11
 10
-45.5
 20
3.62251
 30
0
 70
     0
  0
VERTEX
  8
2
 62
    11
 10
-45.5
 20
2.96117
 30
0
 70
     0
  0
VERTEX
  8
2
 62
    11
 10
-45.5
 20
2.33761
 30
0
 70
     0
  0
VERTEX
  8
2
 62
    11
 10
-45.5
 20
1.75182
 30
0
 70
     0
  0
VERTEX
  8
2
 62
    11
 10
-45.5
 20
1.2038
 30
0
 70
     0
  0
VERTEX
  8
2
 62
    11
 10
-45.5
 20
0.69353
 30
0
 70
     0
  0
VERTEX
  8
2
 62
    11
 10
-45.5
 20
0.22104
 30
0
 70
     0
  0
VERTEX
  8
2
 62
    11
 10
-45.5
 20
-0.2137
 30
0
 70
     0
  0
VERTEX
  8
2
 62
    11
 10
-45.5
 20
-0.61068
 30
0
 70
     0
  0
VERTEX
  8
2
 62
    11
 10
-45.5
 20
-0.96991
 30
0
 70
     0
  0
VERTEX
  8
2
 62
    11
 10
-45.5
 20
-1.29137
 30
0
 70
     0
  0
VERTEX
  8
2
 62
    11
 10
-45.5
 20
-1.57508
 30
0
 70
     0
  0
VERTEX
  8
2
 62
    11
 10
-45.5
 20
-1.82104
 30
0
 70
     0
  0
VERTEX
  8
2
 62
    11
 10
-45.5
 20
-2.02923
 30
0
 70
     0
  0
VERTEX
  8
2
 62
    11
 10
-45.5
 20
-2.19967
 30
0
 70
     0
  0
VERTEX
  8
2
 62
    11
 10
-45.5
 20
-2.33236
 30
0
 70
     0
  0
VERTEX
  8
2
 62
    11
 10
-45.5
 20
-2.42728
 30
0
 70
     0
  0
VERTEX
  8
2
 62
    11
 10
-45.5
 20
-2.48443
 30
0
 70
     0
  0
VERTEX
  8
2
 62
    11
 10
-45.5
 20
-2.50383
 30
0
 70
     0
  0
SEQEND
  0
POLYLINE
  8
2
 62
    11
 66
     1
 10
0
 20
0
 30
0
 70
     0
  0
VERTEX
  8
2
 62
    11
 10
-52
 20
5.67139
 30
0
 70
     0
  0
VERTEX
  8
2
 62
    11
 10
-52
 20
4.94395
 30
0
 70
     0
  0
VERTEX
  8
2
 62
    11
 10
-52
 20
4.25378
 30
0
 70
     0
  0
VERTEX
  8
2
 62
    11
 10
-52
 20
3.60087
 30
0
 70
     0
  0
VERTEX
  8
2
 62
    11
 10
-52
 20
2.98524
 30
0
 70
     0
  0
VERTEX
  8
2
 62
    11
 10
-52
 20
2.40689
 30
0
 70
     0
  0
VERTEX
  8
2
 62
    11
 10
-52
 20
1.86581
 30
0
 70
     0
  0
VERTEX
  8
2
 62
    11
 10
-52
 20
1.36202
 30
0
 70
     0
  0
VERTEX
  8
2
 62
    11
 10
-52
 20
0.89553
 30
0
 70
     0
  0
VERTEX
  8
2
 62
    11
 10
-52
 20
0.46632
 30
0
 70
     0
  0
VERTEX
  8
2
 62
    11
 10
-52
 20
0.07441
 30
0
 70
     0
  0
VERTEX
  8
2
 62
    11
 10
-52
 20
-0.28021
 30
0
 70
     0
  0
VERTEX
  8
2
 62
    11
 10
-52
 20
-0.59753
 30
0
 70
     0
  0
VERTEX
  8
2
 62
    11
 10
-52
 20
-0.87756
 30
0
 70
     0
  0
VERTEX
  8
2
 62
    11
 10
-52
 20
-1.1203
 30
0
 70
     0
  0
VERTEX
  8
2
 62
    11
 10
-52
 20
-1.32575
 30
0
 70
     0
  0
VERTEX
  8
2
 62
    11
 10
-52
 20
-1.49391
 30
0
 70
     0
  0
VERTEX
  8
2
 62
    11
 10
-52
 20
-1.62478
 30
0
 70
     0
  0
VERTEX
  8
2
 62
    11
 10
-52
 20
-1.71838
 30
0
 70
     0
  0
VERTEX
  8
2
 62
    11
 10
-52
 20
-1.77469
 30
0
 70
     0
  0
VERTEX
  8
2
 62
    11
 10
-52
 20
-1.79374
 30
0
 70
     0
  0
SEQEND
  0
POLYLINE
  8
2
 62
    11
 66
     1
 10
0
 20
0
 30
0
 70
     0
  0
VERTEX
  8
2
 62
    11
 10
-58.5
 20
6.35581
 30
0
 70
     0
  0
VERTEX
  8
2
 62
    11
 10
-58.5
 20
5.65299
 30
0
 70
     0
  0
VERTEX
  8
2
 62
    11
 10
-58.5
 20
4.98615
 30
0
 70
     0
  0
VERTEX
  8
2
 62
    11
 10
-58.5
 20
4.3553
 30
0
 70
     0
  0
VERTEX
  8
2
 62
    11
 10
-58.5
 20
3.76046
 30
0
 70
     0
  0
VERTEX
  8
2
 62
    11
 10
-58.5
 20
3.20164
 30
0
 70
     0
  0
VERTEX
  8
2
 62
    11
 10
-58.5
 20
2.67884
 30
0
 70
     0
  0
VERTEX
  8
2
 62
    11
 10
-58.5
 20
2.19207
 30
0
 70
     0
  0
VERTEX
  8
2
 62
    11
 10
-58.5
 20
1.74133
 30
0
 70
     0
  0
VERTEX
  8
2
 62
    11
 10
-58.5
 20
1.32664
 30
0
 70
     0
  0
VERTEX
  8
2
 62
    11
 10
-58.5
 20
0.94799
 30
0
 70
     0
  0
VERTEX
  8
2
 62
    11
 10
-58.5
 20
0.60539
 30
0
 70
     0
  0
VERTEX
  8
2
 62
    11
 10
-58.5
 20
0.29883
 30
0
 70
     0
  0
VERTEX
  8
2
 62
    11
 10
-58.5
 20
0.02832
 30
0
 70
     0
  0
VERTEX
  8
2
 62
    11
 10
-58.5
 20
-0.20614
 30
0
 70
     0
  0
VERTEX
  8
2
 62
    11
 10
-58.5
 20
-0.40455
 30
0
 70
     0
  0
VERTEX
  8
2
 62
    11
 10
-58.5
 20
-0.56692
 30
0
 70
     0
  0
VERTEX
  8
2
 62
    11
 10
-58.5
 20
-0.69326
 30
0
 70
     0
  0
VERTEX
  8
2
 62
    11
 10
-58.5
 20
-0.78356
 30
0
 70
     0
  0
VERTEX
  8
2
 62
    11
 10
-58.5
 20
-0.83783
 30
0
 70
     0
  0
VERTEX
  8
2
 62
    11
 10
-58.5
 20
-0.85609
 30
0
 70
     0
  0
SEQEND
  0
POLYLINE
  8
2
 62
    11
 66
     1
 10
0
 20
0
 30
0
 70
     0
  0
VERTEX
  8
2
 62
    11
 10
-65
 20
7.108
 30
0
 70
     0
  0
VERTEX
  8
2
 62
    11
 10
-65
 20
6.44509
 30
0
 70
     0
  0
VERTEX
  8
2
 62
    11
 10
-65
 20
5.81619
 30
0
 70
     0
  0
VERTEX
  8
2
 62
    11
 10
-65
 20
5.22127
 30
0
 70
     0
  0
VERTEX
  8
2
 62
    11
 10
-65
 20
4.66036
 30
0
 70
     0
  0
VERTEX
  8
2
 62
    11
 10
-65
 20
4.13343
 30
0
 70
     0
  0
VERTEX
  8
2
 62
    11
 10
-65
 20
3.64051
 30
0
 70
     0
  0
VERTEX
  8
2
 62
    11
 10
-65
 20
3.18157
 30
0
 70
     0
  0
VERTEX
  8
2
 62
    11
 10
-65
 20
2.75664
 30
0
 70
     0
  0
VERTEX
  8
2
 62
    11
 10
-65
 20
2.36569
 30
0
 70
     0
  0
VERTEX
  8
2
 62
    11
 10
-65
 20
2.00874
 30
0
 70
     0
  0
VERTEX
  8
2
 62
    11
 10
-65
 20
1.68579
 30
0
 70
     0
  0
VERTEX
  8
2
 62
    11
 10
-65
 20
1.39683
 30
0
 70
     0
  0
VERTEX
  8
2
 62
    11
 10
-65
 20
1.14187
 30
0
 70
     0
  0
VERTEX
  8
2
 62
    11
 10
-65
 20
0.9209
 30
0
 70
     0
  0
VERTEX
  8
2
 62
    11
 10
-65
 20
0.73393
 30
0
 70
     0
  0
VERTEX
  8
2
 62
    11
 10
-65
 20
0.58095
 30
0
 70
     0
  0
VERTEX
  8
2
 62
    11
 10
-65
 20
0.46197
 30
0
 70
     0
  0
VERTEX
  8
2
 62
    11
 10
-65
 20
0.37698
 30
0
 70
     0
  0
VERTEX
  8
2
 62
    11
 10
-65
 20
0.32599
 30
0
 70
     0
  0
VERTEX
  8
2
 62
    11
 10
-65
 20
0.30899
 30
0
 70
     0
  0
SEQEND
  0
POLYLINE
  8
2
 62
    11
 66
     1
 10
0
 20
0
 30
0
 70
     0
  0
VERTEX
  8
2
 62
    11
 10
-3E-005
 20
0.25399
 30
0
 70
     0
  0
VERTEX
  8
2
 62
    11
 10
-3E-005
 20
0.25399
 30
0
 70
     0
  0
VERTEX
  8
2
 62
    11
 10
-3E-005
 20
0.25399
 30
0
 70
     0
  0
VERTEX
  8
2
 62
    11
 10
-3E-005
 20
0.25399
 30
0
 70
     0
  0
VERTEX
  8
2
 62
    11
 10
-3E-005
 20
0.25399
 30
0
 70
     0
  0
VERTEX
  8
2
 62
    11
 10
-3E-005
 20
0.25399
 30
0
 70
     0
  0
VERTEX
  8
2
 62
    11
 10
-3E-005
 20
0.25399
 30
0
 70
     0
  0
VERTEX
  8
2
 62
    11
 10
-3E-005
 20
0.25399
 30
0
 70
     0
  0
VERTEX
  8
2
 62
    11
 10
-3E-005
 20
0.25399
 30
0
 70
     0
  0
VERTEX
  8
2
 62
    11
 10
-3E-005
 20
0.25399
 30
0
 70
     0
  0
VERTEX
  8
2
 62
    11
 10
-3E-005
 20
0.25399
 30
0
 70
     0
  0
SEQEND
  0
POLYLINE
  8
2
 62
    11
 66
     1
 10
0
 20
0
 30
0
 70
     0
  0
VERTEX
  8
2
 62
    11
 10
-6.5
 20
-1.20414
 30
0
 70
     0
  0
VERTEX
  8
2
 62
    11
 10
-6.5
 20
-1.20414
 30
0
 70
     0
  0
VERTEX
  8
2
 62
    11
 10
-6.5
 20
-1.20414
 30
0
 70
     0
  0
VERTEX
  8
2
 62
    11
 10
-6.5
 20
-1.20414
 30
0
 70
     0
  0
VERTEX
  8
2
 62
    11
 10
-6.5
 20
-1.20414
 30
0
 70
     0
  0
VERTEX
  8
2
 62
    11
 10
-6.5
 20
-1.20414
 30
0
 70
     0
  0
VERTEX
  8
2
 62
    11
 10
-6.5
 20
-1.20414
 30
0
 70
     0
  0
VERTEX
  8
2
 62
    11
 10
-6.5
 20
-1.20414
 30
0
 70
     0
  0
VERTEX
  8
2
 62
    11
 10
-6.5
 20
-1.20414
 30
0
 70
     0
  0
VERTEX
  8
2
 62
    11
 10
-6.5
 20
-1.20414
 30
0
 70
     0
  0
VERTEX
  8
2
 62
    11
 10
-6.5
 20
-1.20414
 30
0
 70
     0
  0
SEQEND
  0
POLYLINE
  8
2
 62
    11
 66
     1
 10
0
 20
0
 30
0
 70
     0
  0
VERTEX
  8
2
 62
    11
 10
-13
 20
-2.18232
 30
0
 70
     0
  0
VERTEX
  8
2
 62
    11
 10
-13
 20
-2.18232
 30
0
 70
     0
  0
VERTEX
  8
2
 62
    11
 10
-13
 20
-2.18232
 30
0
 70
     0
  0
VERTEX
  8
2
 62
    11
 10
-13
 20
-2.18232
 30
0
 70
     0
  0
VERTEX
  8
2
 62
    11
 10
-13
 20
-2.18232
 30
0
 70
     0
  0
VERTEX
  8
2
 62
    11
 10
-13
 20
-2.18232
 30
0
 70
     0
  0
VERTEX
  8
2
 62
    11
 10
-13
 20
-2.18232
 30
0
 70
     0
  0
VERTEX
  8
2
 62
    11
 10
-13
 20
-2.18232
 30
0
 70
     0
  0
VERTEX
  8
2
 62
    11
 10
-13
 20
-2.18232
 30
0
 70
     0
  0
VERTEX
  8
2
 62
    11
 10
-13
 20
-2.18232
 30
0
 70
     0
  0
VERTEX
  8
2
 62
    11
 10
-13
 20
-2.18232
 30
0
 70
     0
  0
SEQEND
  0
POLYLINE
  8
2
 62
    11
 66
     1
 10
0
 20
0
 30
0
 70
     0
  0
VERTEX
  8
2
 62
    11
 10
-19.5
 20
-2.80081
 30
0
 70
     0
  0
VERTEX
  8
2
 62
    11
 10
-19.5
 20
-2.80081
 30
0
 70
     0
  0
VERTEX
  8
2
 62
    11
 10
-19.5
 20
-2.80081
 30
0
 70
     0
  0
VERTEX
  8
2
 62
    11
 10
-19.5
 20
-2.80081
 30
0
 70
     0
  0
VERTEX
  8
2
 62
    11
 10
-19.5
 20
-2.80081
 30
0
 70
     0
  0
VERTEX
  8
2
 62
    11
 10
-19.5
 20
-2.80081
 30
0
 70
     0
  0
VERTEX
  8
2
 62
    11
 10
-19.5
 20
-2.80081
 30
0
 70
     0
  0
VERTEX
  8
2
 62
    11
 10
-19.5
 20
-2.8008
 30
0
 70
     0
  0
VERTEX
  8
2
 62
    11
 10
-19.5
 20
-2.8008
 30
0
 70
     0
  0
VERTEX
  8
2
 62
    11
 10
-19.5
 20
-2.8008
 30
0
 70
     0
  0
VERTEX
  8
2
 62
    11
 10
-19.5
 20
-2.8008
 30
0
 70
     0
  0
SEQEND
  0
POLYLINE
  8
2
 62
    11
 66
     1
 10
0
 20
0
 30
0
 70
     0
  0
VERTEX
  8
2
 62
    11
 10
-26
 20
-3.1263
 30
0
 70
     0
  0
VERTEX
  8
2
 62
    11
 10
-26
 20
-3.12629
 30
0
 70
     0
  0
VERTEX
  8
2
 62
    11
 10
-26
 20
-3.12629
 30
0
 70
     0
  0
VERTEX
  8
2
 62
    11
 10
-26
 20
-3.12629
 30
0
 70
     0
  0
VERTEX
  8
2
 62
    11
 10
-26
 20
-3.12628
 30
0
 70
     0
  0
VERTEX
  8
2
 62
    11
 10
-26
 20
-3.12628
 30
0
 70
     0
  0
VERTEX
  8
2
 62
    11
 10
-26
 20
-3.12628
 30
0
 70
     0
  0
VERTEX
  8
2
 62
    11
 10
-26
 20
-3.12628
 30
0
 70
     0
  0
VERTEX
  8
2
 62
    11
 10
-26
 20
-3.12628
 30
0
 70
     0
  0
VERTEX
  8
2
 62
    11
 10
-26
 20
-3.12628
 30
0
 70
     0
  0
VERTEX
  8
2
 62
    11
 10
-26
 20
-3.12628
 30
0
 70
     0
  0
SEQEND
  0
POLYLINE
  8
2
 62
    11
 66
     1
 10
0
 20
0
 30
0
 70
     0
  0
VERTEX
  8
2
 62
    11
 10
-32.5
 20
-3.18181
 30
0
 70
     0
  0
VERTEX
  8
2
 62
    11
 10
-32.5
 20
-3.18181
 30
0
 70
     0
  0
VERTEX
  8
2
 62
    11
 10
-32.5
 20
-3.1818
 30
0
 70
     0
  0
VERTEX
  8
2
 62
    11
 10
-32.5
 20
-3.1818
 30
0
 70
     0
  0
VERTEX
  8
2
 62
    11
 10
-32.5
 20
-3.18179
 30
0
 70
     0
  0
VERTEX
  8
2
 62
    11
 10
-32.5
 20
-3.18179
 30
0
 70
     0
  0
VERTEX
  8
2
 62
    11
 10
-32.5
 20
-3.18179
 30
0
 70
     0
  0
VERTEX
  8
2
 62
    11
 10
-32.5
 20
-3.18178
 30
0
 70
     0
  0
VERTEX
  8
2
 62
    11
 10
-32.5
 20
-3.18178
 30
0
 70
     0
  0
VERTEX
  8
2
 62
    11
 10
-32.5
 20
-3.18178
 30
0
 70
     0
  0
VERTEX
  8
2
 62
    11
 10
-32.5
 20
-3.18178
 30
0
 70
     0
  0
SEQEND
  0
POLYLINE
  8
2
 62
    11
 66
     1
 10
0
 20
0
 30
0
 70
     0
  0
VERTEX
  8
2
 62
    11
 10
-39
 20
-2.97171
 30
0
 70
     0
  0
VERTEX
  8
2
 62
    11
 10
-39
 20
-2.97172
 30
0
 70
     0
  0
VERTEX
  8
2
 62
    11
 10
-39
 20
-2.97172
 30
0
 70
     0
  0
VERTEX
  8
2
 62
    11
 10
-39
 20
-2.97173
 30
0
 70
     0
  0
VERTEX
  8
2
 62
    11
 10
-39
 20
-2.97173
 30
0
 70
     0
  0
VERTEX
  8
2
 62
    11
 10
-39
 20
-2.97174
 30
0
 70
     0
  0
VERTEX
  8
2
 62
    11
 10
-39
 20
-2.97174
 30
0
 70
     0
  0
VERTEX
  8
2
 62
    11
 10
-39
 20
-2.97174
 30
0
 70
     0
  0
VERTEX
  8
2
 62
    11
 10
-39
 20
-2.97175
 30
0
 70
     0
  0
VERTEX
  8
2
 62
    11
 10
-39
 20
-2.97175
 30
0
 70
     0
  0
VERTEX
  8
2
 62
    11
 10
-39
 20
-2.97175
 30
0
 70
     0
  0
SEQEND
  0
POLYLINE
  8
2
 62
    11
 66
     1
 10
0
 20
0
 30
0
 70
     0
  0
VERTEX
  8
2
 62
    11
 10
-45.5
 20
-2.50442
 30
0
 70
     0
  0
VERTEX
  8
2
 62
    11
 10
-45.5
 20
-2.50443
 30
0
 70
     0
  0
VERTEX
  8
2
 62
    11
 10
-45.5
 20
-2.50443
 30
0
 70
     0
  0
VERTEX
  8
2
 62
    11
 10
-45.5
 20
-2.50444
 30
0
 70
     0
  0
VERTEX
  8
2
 62
    11
 10
-45.5
 20
-2.50444
 30
0
 70
     0
  0
VERTEX
  8
2
 62
    11
 10
-45.5
 20
-2.50444
 30
0
 70
     0
  0
VERTEX
  8
2
 62
    11
 10
-45.5
 20
-2.50445
 30
0
 70
     0
  0
VERTEX
  8
2
 62
    11
 10
-45.5
 20
-2.50445
 30
0
 70
     0
  0
VERTEX
  8
2
 62
    11
 10
-45.5
 20
-2.50445
 30
0
 70
     0
  0
VERTEX
  8
2
 62
    11
 10
-45.5
 20
-2.50445
 30
0
 70
     0
  0
VERTEX
  8
2
 62
    11
 10
-45.5
 20
-2.50445
 30
0
 70
     0
  0
SEQEND
  0
POLYLINE
  8
2
 62
    11
 66
     1
 10
0
 20
0
 30
0
 70
     0
  0
VERTEX
  8
2
 62
    11
 10
-52
 20
-1.79439
 30
0
 70
     0
  0
VERTEX
  8
2
 62
    11
 10
-52
 20
-1.79439
 30
0
 70
     0
  0
VERTEX
  8
2
 62
    11
 10
-52
 20
-1.79439
 30
0
 70
     0
  0
VERTEX
  8
2
 62
    11
 10
-52
 20
-1.79439
 30
0
 70
     0
  0
VERTEX
  8
2
 62
    11
 10
-52
 20
-1.7944
 30
0
 70
     0
  0
VERTEX
  8
2
 62
    11
 10
-52
 20
-1.7944
 30
0
 70
     0
  0
VERTEX
  8
2
 62
    11
 10
-52
 20
-1.7944
 30
0
 70
     0
  0
VERTEX
  8
2
 62
    11
 10
-52
 20
-1.7944
 30
0
 70
     0
  0
VERTEX
  8
2
 62
    11
 10
-52
 20
-1.7944
 30
0
 70
     0
  0
VERTEX
  8
2
 62
    11
 10
-52
 20
-1.7944
 30
0
 70
     0
  0
VERTEX
  8
2
 62
    11
 10
-52
 20
-1.7944
 30
0
 70
     0
  0
SEQEND
  0
POLYLINE
  8
2
 62
    11
 66
     1
 10
0
 20
0
 30
0
 70
     0
  0
VERTEX
  8
2
 62
    11
 10
-58.5
 20
-0.85655
 30
0
 70
     0
  0
VERTEX
  8
2
 62
    11
 10
-58.5
 20
-0.85655
 30
0
 70
     0
  0
VERTEX
  8
2
 62
    11
 10
-58.5
 20
-0.85655
 30
0
 70
     0
  0
VERTEX
  8
2
 62
    11
 10
-58.5
 20
-0.85655
 30
0
 70
     0
  0
VERTEX
  8
2
 62
    11
 10
-58.5
 20
-0.85655
 30
0
 70
     0
  0
VERTEX
  8
2
 62
    11
 10
-58.5
 20
-0.85655
 30
0
 70
     0
  0
VERTEX
  8
2
 62
    11
 10
-58.5
 20
-0.85655
 30
0
 70
     0
  0
VERTEX
  8
2
 62
    11
 10
-58.5
 20
-0.85655
 30
0
 70
     0
  0
VERTEX
  8
2
 62
    11
 10
-58.5
 20
-0.85655
 30
0
 70
     0
  0
VERTEX
  8
2
 62
    11
 10
-58.5
 20
-0.85655
 30
0
 70
     0
  0
VERTEX
  8
2
 62
    11
 10
-58.5
 20
-0.85655
 30
0
 70
     0
  0
SEQEND
  0
POLYLINE
  8
2
 62
    11
 66
     1
 10
0
 20
0
 30
0
 70
     0
  0
VERTEX
  8
2
 62
    11
 10
-65
 20
0.30899
 30
0
 70
     0
  0
VERTEX
  8
2
 62
    11
 10
-65
 20
0.30899
 30
0
 70
     0
  0
VERTEX
  8
2
 62
    11
 10
-65
 20
0.30899
 30
0
 70
     0
  0
VERTEX
  8
2
 62
    11
 10
-65
 20
0.30899
 30
0
 70
     0
  0
VERTEX
  8
2
 62
    11
 10
-65
 20
0.30899
 30
0
 70
     0
  0
VERTEX
  8
2
 62
    11
 10
-65
 20
0.30899
 30
0
 70
     0
  0
VERTEX
  8
2
 62
    11
 10
-65
 20
0.30899
 30
0
 70
     0
  0
VERTEX
  8
2
 62
    11
 10
-65
 20
0.30899
 30
0
 70
     0
  0
VERTEX
  8
2
 62
    11
 10
-65
 20
0.30899
 30
0
 70
     0
  0
VERTEX
  8
2
 62
    11
 10
-65
 20
0.30899
 30
0
 70
     0
  0
VERTEX
  8
2
 62
    11
 10
-65
 20
0.30899
 30
0
 70
     0
  0
SEQEND
  0
POLYLINE
  8
2
 62
     9
 66
     1
 10
0
 20
0
 30
0
 70
     0
  0
VERTEX
  8
2
 62
     9
 10
-62.6242
 20
6.83247
 30
0
 70
     0
  0
VERTEX
  8
2
 62
     9
 10
-62.6503
 20
6.15801
 30
0
 70
     0
  0
VERTEX
  8
2
 62
     9
 10
-62.6544
 20
5.51576
 30
0
 70
     0
  0
VERTEX
  8
2
 62
     9
 10
-62.6362
 20
4.90533
 30
0
 70
     0
  0
VERTEX
  8
2
 62
     9
 10
-62.5951
 20
4.32623
 30
0
 70
     0
  0
VERTEX
  8
2
 62
     9
 10
-62.5292
 20
3.77791
 30
0
 70
     0
  0
VERTEX
  8
2
 62
     9
 10
-62.436
 20
3.25968
 30
0
 70
     0
  0
VERTEX
  8
2
 62
     9
 10
-62.3117
 20
2.7707
 30
0
 70
     0
  0
VERTEX
  8
2
 62
     9
 10
-62.1512
 20
2.30985
 30
0
 70
     0
  0
VERTEX
  8
2
 62
     9
 10
-61.9471
 20
1.87568
 30
0
 70
     0
  0
VERTEX
  8
2
 62
     9
 10
-61.689
 20
1.46621
 30
0
 70
     0
  0
VERTEX
  8
2
 62
     9
 10
-61.362
 20
1.07868
 30
0
 70
     0
  0
VERTEX
  8
2
 62
     9
 10
-60.9442
 20
0.70905
 30
0
 70
     0
  0
VERTEX
  8
2
 62
     9
 10
-60.4022
 20
0.35125
 30
0
 70
     0
  0
VERTEX
  8
2
 62
     9
 10
-59.6826
 20
-0.00435
 30
0
 70
     0
  0
VERTEX
  8
2
 62
     9
 10
-58.6949
 20
-0.37406
 30
0
 70
     0
  0
VERTEX
  8
2
 62
     9
 10
-58.613
 20
-0.39932
 30
0
 70
     0
  0
VERTEX
  8
2
 62
     9
 10
-57.189
 20
-0.75494
 30
0
 70
     0
  0
VERTEX
  8
2
 62
     9
 10
-54.9766
 20
-1.20073
 30
0
 70
     0
  0
VERTEX
  8
2
 62
     9
 10
-52.1188
 20
-1.69091
 30
0
 70
     0
  0
VERTEX
  8
2
 62
     9
 10
-51.3467
 20
-1.79004
 30
0
 70
     0
  0
VERTEX
  8
2
 62
     9
 10
-45.5915
 20
-2.46837
 30
0
 70
     0
  0
VERTEX
  8
2
 62
     9
 10
-43.5737
 20
-2.62368
 30
0
 70
     0
  0
VERTEX
  8
2
 62
     9
 10
-39.0455
 20
-2.95655
 30
0
 70
     0
  0
VERTEX
  8
2
 62
     9
 10
-32.4902
 20
-3.17368
 30
0
 70
     0
  0
VERTEX
  8
2
 62
     9
 10
-25.935
 20
-3.11874
 30
0
 70
     0
  0
VERTEX
  8
2
 62
     9
 10
-19.3898
 20
-2.78787
 30
0
 70
     0
  0
VERTEX
  8
2
 62
     9
 10
-12.8668
 20
-2.16047
 30
0
 70
     0
  0
VERTEX
  8
2
 62
     9
 10
-6.3889
 20
-1.17606
 30
0
 70
     0
  0
VERTEX
  8
2
 62
     9
 10
-6.06387
 20
-1.10276
 30
0
 70
     0
  0
VERTEX
  8
2
 62
     9
 10
0
 20
0.27203
 30
0
 70
     0
  0
SEQEND
  0
POLYLINE
  8
2
 62
     9
 66
     1
 10
0
 20
0
 30
0
 70
     0
  0
VERTEX
  8
2
 62
     9
 10
-58.7486
 20
6.38299
 30
0
 70
     0
  0
VERTEX
  8
2
 62
     9
 10
-58.7798
 20
5.68511
 30
0
 70
     0
  0
VERTEX
  8
2
 62
     9
 10
-58.7694
 20
5.01818
 30
0
 70
     0
  0
VERTEX
  8
2
 62
     9
 10
-58.7165
 20
4.3814
 30
0
 70
     0
  0
VERTEX
  8
2
 62
     9
 10
-58.6684
 20
4.07913
 30
0
 70
     0
  0
VERTEX
  8
2
 62
     9
 10
-58.6108
 20
3.77377
 30
0
 70
     0
  0
VERTEX
  8
2
 62
     9
 10
-58.4416
 20
3.19444
 30
0
 70
     0
  0
VERTEX
  8
2
 62
     9
 10
-58.2114
 20
2.64247
 30
0
 70
     0
  0
VERTEX
  8
2
 62
     9
 10
-57.9125
 20
2.11647
 30
0
 70
     0
  0
VERTEX
  8
2
 62
     9
 10
-57.5339
 20
1.61463
 30
0
 70
     0
  0
VERTEX
  8
2
 62
     9
 10
-57.0602
 20
1.13458
 30
0
 70
     0
  0
VERTEX
  8
2
 62
     9
 10
-56.4706
 20
0.67312
 30
0
 70
     0
  0
VERTEX
  8
2
 62
     9
 10
-55.7355
 20
0.22585
 30
0
 70
     0
  0
VERTEX
  8
2
 62
     9
 10
-54.8122
 20
-0.21349
 30
0
 70
     0
  0
VERTEX
  8
2
 62
     9
 10
-53.6378
 20
-0.65412
 30
0
 70
     0
  0
VERTEX
  8
2
 62
     9
 10
-52.1875
 20
-1.08932
 30
0
 70
     0
  0
VERTEX
  8
2
 62
     9
 10
-52.0978
 20
-1.10966
 30
0
 70
     0
  0
VERTEX
  8
2
 62
     9
 10
-49.6038
 20
-1.5874
 30
0
 70
     0
  0
VERTEX
  8
2
 62
     9
 10
-46.2013
 20
-2.12858
 30
0
 70
     0
  0
VERTEX
  8
2
 62
     9
 10
-45.653
 20
-2.20571
 30
0
 70
     0
  0
VERTEX
  8
2
 62
     9
 10
-39.6645
 20
-2.75698
 30
0
 70
     0
  0
VERTEX
  8
2
 62
     9
 10
-39.0949
 20
-2.80468
 30
0
 70
     0
  0
VERTEX
  8
2
 62
     9
 10
-32.5262
 20
-3.06257
 30
0
 70
     0
  0
VERTEX
  8
2
 62
     9
 10
-25.9579
 20
-3.02421
 30
0
 70
     0
  0
VERTEX
  8
2
 62
     9
 10
-19.4013
 20
-2.69267
 30
0
 70
     0
  0
VERTEX
  8
2
 62
     9
 10
-12.9413
 20
-2.06006
 30
0
 70
     0
  0
VERTEX
  8
2
 62
     9
 10
-12.8704
 20
-2.05297
 30
0
 70
     0
  0
VERTEX
  8
2
 62
     9
 10
-6.38956
 20
-1.03308
 30
0
 70
     0
  0
VERTEX
  8
2
 62
     9
 10
-6.37325
 20
-1.02933
 30
0
 70
     0
  0
VERTEX
  8
2
 62
     9
 10
-2.90319
 20
-0.22104
 30
0
 70
     0
  0
VERTEX
  8
2
 62
     9
 10
-0.36938
 20
0.36625
 30
0
 70
     0
  0
VERTEX
  8
2
 62
     9
 10
0
 20
0.45227
 30
0
 70
     0
  0
SEQEND
  0
POLYLINE
  8
2
 62
     9
 66
     1
 10
0
 20
0
 30
0
 70
     0
  0
VERTEX
  8
2
 62
     9
 10
-54.2085
 20
5.90204
 30
0
 70
     0
  0
VERTEX
  8
2
 62
     9
 10
-54.2539
 20
5.18751
 30
0
 70
     0
  0
VERTEX
  8
2
 62
     9
 10
-54.2285
 20
4.50215
 30
0
 70
     0
  0
VERTEX
  8
2
 62
     9
 10
-54.1313
 20
3.84508
 30
0
 70
     0
  0
VERTEX
  8
2
 62
     9
 10
-53.9592
 20
3.21525
 30
0
 70
     0
  0
VERTEX
  8
2
 62
     9
 10
-53.7068
 20
2.61139
 30
0
 70
     0
  0
VERTEX
  8
2
 62
     9
 10
-53.366
 20
2.03188
 30
0
 70
     0
  0
VERTEX
  8
2
 62
     9
 10
-52.925
 20
1.47468
 30
0
 70
     0
  0
VERTEX
  8
2
 62
     9
 10
-52.368
 20
0.93717
 30
0
 70
     0
  0
VERTEX
  8
2
 62
     9
 10
-52.2509
 20
0.84716
 30
0
 70
     0
  0
VERTEX
  8
2
 62
     9
 10
-51.5259
 20
0.41615
 30
0
 70
     0
  0
VERTEX
  8
2
 62
     9
 10
-50.4446
 20
-0.09139
 30
0
 70
     0
  0
VERTEX
  8
2
 62
     9
 10
-49.1023
 20
-0.59111
 30
0
 70
     0
  0
VERTEX
  8
2
 62
     9
 10
-47.4258
 20
-1.0911
 30
0
 70
     0
  0
VERTEX
  8
2
 62
     9
 10
-45.7138
 20
-1.50806
 30
0
 70
     0
  0
VERTEX
  8
2
 62
     9
 10
-45.1416
 20
-1.6017
 30
0
 70
     0
  0
VERTEX
  8
2
 62
     9
 10
-41.3149
 20
-2.12999
 30
0
 70
     0
  0
VERTEX
  8
2
 62
     9
 10
-39.1454
 20
-2.38444
 30
0
 70
     0
  0
VERTEX
  8
2
 62
     9
 10
-34.165
 20
-2.67267
 30
0
 70
     0
  0
VERTEX
  8
2
 62
     9
 10
-32.5643
 20
-2.75386
 30
0
 70
     0
  0
VERTEX
  8
2
 62
     9
 10
-25.9841
 20
-2.75081
 30
0
 70
     0
  0
VERTEX
  8
2
 62
     9
 10
-19.4177
 20
-2.42066
 30
0
 70
     0
  0
VERTEX
  8
2
 62
     9
 10
-19.2108
 20
-2.39961
 30
0
 70
     0
  0
VERTEX
  8
2
 62
     9
 10
-12.881
 20
-1.73521
 30
0
 70
     0
  0
VERTEX
  8
2
 62
     9
 10
-12.0894
 20
-1.60453
 30
0
 70
     0
  0
VERTEX
  8
2
 62
     9
 10
-8.35775
 20
-0.96896
 30
0
 70
     0
  0
VERTEX
  8
2
 62
     9
 10
-6.399
 20
-0.62659
 30
0
 70
     0
  0
VERTEX
  8
2
 62
     9
 10
-5.65174
 20
-0.44108
 30
0
 70
     0
  0
VERTEX
  8
2
 62
     9
 10
-3.83452
 20
0.02133
 30
0
 70
     0
  0
VERTEX
  8
2
 62
     9
 10
-2.34733
 20
0.4029
 30
0
 70
     0
  0
VERTEX
  8
2
 62
     9
 10
-1.11092
 20
0.72174
 30
0
 70
     0
  0
VERTEX
  8
2
 62
     9
 10
-0.06992
 20
0.99066
 30
0
 70
     0
  0
VERTEX
  8
2
 62
     9
 10
0
 20
1.00947
 30
0
 70
     0
  0
SEQEND
  0
POLYLINE
  8
2
 62
     9
 66
     1
 10
0
 20
0
 30
0
 70
     0
  0
VERTEX
  8
2
 62
     9
 10
-48.9999
 20
5.38703
 30
0
 70
     0
  0
VERTEX
  8
2
 62
     9
 10
-49.0614
 20
4.66079
 30
0
 70
     0
  0
VERTEX
  8
2
 62
     9
 10
-49.0084
 20
3.96104
 30
0
 70
     0
  0
VERTEX
  8
2
 62
     9
 10
-48.8385
 20
3.28707
 30
0
 70
     0
  0
VERTEX
  8
2
 62
     9
 10
-48.5463
 20
2.6379
 30
0
 70
     0
  0
VERTEX
  8
2
 62
     9
 10
-48.1228
 20
2.0122
 30
0
 70
     0
  0
VERTEX
  8
2
 62
     9
 10
-47.5547
 20
1.40824
 30
0
 70
     0
  0
VERTEX
  8
2
 62
     9
 10
-46.8232
 20
0.82373
 30
0
 70
     0
  0
VERTEX
  8
2
 62
     9
 10
-45.9027
 20
0.25566
 30
0
 70
     0
  0
VERTEX
  8
2
 62
     9
 10
-45.7735
 20
0.19122
 30
0
 70
     0
  0
VERTEX
  8
2
 62
     9
 10
-44.3448
 20
-0.30206
 30
0
 70
     0
  0
VERTEX
  8
2
 62
     9
 10
-42.3478
 20
-0.84981
 30
0
 70
     0
  0
VERTEX
  8
2
 62
     9
 10
-39.8712
 20
-1.39366
 30
0
 70
     0
  0
VERTEX
  8
2
 62
     9
 10
-39.1978
 20
-1.51737
 30
0
 70
     0
  0
VERTEX
  8
2
 62
     9
 10
-34.96
 20
-1.93078
 30
0
 70
     0
  0
VERTEX
  8
2
 62
     9
 10
-32.6062
 20
-2.12207
 30
0
 70
     0
  0
VERTEX
  8
2
 62
     9
 10
-26.0157
 20
-2.19885
 30
0
 70
     0
  0
VERTEX
  8
2
 62
     9
 10
-19.4419
 20
-1.85749
 30
0
 70
     0
  0
VERTEX
  8
2
 62
     9
 10
-18.7479
 20
-1.77859
 30
0
 70
     0
  0
VERTEX
  8
2
 62
     9
 10
-14.0396
 20
-1.21415
 30
0
 70
     0
  0
VERTEX
  8
2
 62
     9
 10
-12.903
 20
-1.07018
 30
0
 70
     0
  0
VERTEX
  8
2
 62
     9
 10
-11.136
 20
-0.71687
 30
0
 70
     0
  0
VERTEX
  8
2
 62
     9
 10
-9.06246
 20
-0.27824
 30
0
 70
     0
  0
VERTEX
  8
2
 62
     9
 10
-7.32925
 20
0.10932
 30
0
 70
     0
  0
VERTEX
  8
2
 62
     9
 10
-6.42668
 20
0.32656
 30
0
 70
     0
  0
VERTEX
  8
2
 62
     9
 10
-5.99951
 20
0.46644
 30
0
 70
     0
  0
VERTEX
  8
2
 62
     9
 10
-5.05686
 20
0.80233
 30
0
 70
     0
  0
VERTEX
  8
2
 62
     9
 10
-4.262
 20
1.10886
 30
0
 70
     0
  0
VERTEX
  8
2
 62
     9
 10
-3.59344
 20
1.39265
 30
0
 70
     0
  0
VERTEX
  8
2
 62
     9
 10
-3.03508
 20
1.65944
 30
0
 70
     0
  0
VERTEX
  8
2
 62
     9
 10
-2.57502
 20
1.91443
 30
0
 70
     0
  0
VERTEX
  8
2
 62
     9
 10
-2.20472
 20
2.16257
 30
0
 70
     0
  0
VERTEX
  8
2
 62
     9
 10
-1.91844
 20
2.40882
 30
0
 70
     0
  0
SEQEND
  0
POLYLINE
  8
2
 62
     9
 66
     1
 10
0
 20
0
 30
0
 70
     0
  0
VERTEX
  8
2
 62
     9
 10
-42.3768
 20
4.79565
 30
0
 70
     0
  0
VERTEX
  8
2
 62
     9
 10
-42.4452
 20
4.06769
 30
0
 70
     0
  0
VERTEX
  8
2
 62
     9
 10
-42.3227
 20
3.36155
 30
0
 70
     0
  0
VERTEX
  8
2
 62
     9
 10
-42.0028
 20
2.67725
 30
0
 70
     0
  0
VERTEX
  8
2
 62
     9
 10
-41.474
 20
2.01438
 30
0
 70
     0
  0
VERTEX
  8
2
 62
     9
 10
-40.7191
 20
1.37205
 30
0
 70
     0
  0
VERTEX
  8
2
 62
     9
 10
-39.7135
 20
0.74882
 30
0
 70
     0
  0
VERTEX
  8
2
 62
     9
 10
-39.2551
 20
0.52946
 30
0
 70
     0
  0
VERTEX
  8
2
 62
     9
 10
-37.825
 20
0.13486
 30
0
 70
     0
  0
VERTEX
  8
2
 62
     9
 10
-35.0158
 20
-0.46448
 30
0
 70
     0
  0
VERTEX
  8
2
 62
     9
 10
-32.6551
 20
-0.861
 30
0
 70
     0
  0
VERTEX
  8
2
 62
     9
 10
-28.2034
 20
-1.05523
 30
0
 70
     0
  0
VERTEX
  8
2
 62
     9
 10
-26.0572
 20
-1.13203
 30
0
 70
     0
  0
VERTEX
  8
2
 62
     9
 10
-24.8577
 20
-1.06382
 30
0
 70
     0
  0
VERTEX
  8
2
 62
     9
 10
-19.4811
 20
-0.73397
 30
0
 70
     0
  0
VERTEX
  8
2
 62
     9
 10
-18.4618
 20
-0.57665
 30
0
 70
     0
  0
VERTEX
  8
2
 62
     9
 10
-15.7816
 20
-0.1172
 30
0
 70
     0
  0
VERTEX
  8
2
 62
     9
 10
-13.5248
 20
0.30832
 30
0
 70
     0
  0
VERTEX
  8
2
 62
     9
 10
-12.9528
 20
0.43202
 30
0
 70
     0
  0
VERTEX
  8
2
 62
     9
 10
-12.1098
 20
0.72443
 30
0
 70
     0
  0
VERTEX
  8
2
 62
     9
 10
-11.112
 20
1.12992
 30
0
 70
     0
  0
VERTEX
  8
2
 62
     9
 10
-10.2999
 20
1.52548
 30
0
 70
     0
  0
VERTEX
  8
2
 62
     9
 10
-9.6561
 20
1.91761
 30
0
 70
     0
  0
VERTEX
  8
2
 62
     9
 10
-9.16936
 20
2.31278
 30
0
 70
     0
  0
VERTEX
  8
2
 62
     9
 10
-8.83358
 20
2.7178
 30
0
 70
     0
  0
SEQEND
  0
POLYLINE
  8
2
 62
     9
 66
     1
 10
0
 20
0
 30
0
 70
     0
  0
VERTEX
  8
2
 62
     9
 10
-29.6783
 20
3.85151
 30
0
 70
     0
  0
VERTEX
  8
2
 62
     9
 10
-29.4365
 20
3.1549
 30
0
 70
     0
  0
VERTEX
  8
2
 62
     9
 10
-28.1021
 20
2.44063
 30
0
 70
     0
  0
VERTEX
  8
2
 62
     9
 10
-26.1364
 20
1.89472
 30
0
 70
     0
  0
VERTEX
  8
2
 62
     9
 10
-24.1798
 20
2.2684
 30
0
 70
     0
  0
VERTEX
  8
2
 62
     9
 10
-22.4059
 20
2.78986
 30
0
 70
     0
  0
VERTEX
  8
2
 62
     9
 10
-21.5169
 20
3.35708
 30
0
 70
     0
  0
SEQEND
  0
POLYLINE
  8
2
 62
    14
 66
     1
 10
0
 20
0
 30
0
 70
     0
  0
VERTEX
  8
2
 62
    14
 10
-23.4608
 20
-3
 30
0
 70
     0
  0
VERTEX
  8
2
 62
    14
 10
-23.7858
 20
-3
 30
0
 70
     0
  0
VERTEX
  8
2
 62
    14
 10
-24.7782
 20
-3
 30
0
 70
     0
  0
VERTEX
  8
2
 62
    14
 10
-25.9611
 20
-3
 30
0
 70
     0
  0
VERTEX
  8
2
 62
    14
 10
-29.7717
 20
-3
 30
0
 70
     0
  0
VERTEX
  8
2
 62
    14
 10
-32.5368
 20
-3
 30
0
 70
     0
  0
VERTEX
  8
2
 62
    14
 10
-33.0964
 20
-3
 30
0
 70
     0
  0
VERTEX
  8
2
 62
    14
 10
-35.8354
 20
-3
 30
0
 70
     0
  0
VERTEX
  8
2
 62
    14
 10
-37.5326
 20
-3
 30
0
 70
     0
  0
VERTEX
  8
2
 62
    14
 10
-38.1162
 20
-3
 30
0
 70
     0
  0
SEQEND
  0
POLYLINE
  8
2
 62
    14
 66
     1
 10
0
 20
0
 30
0
 70
     0
  0
VERTEX
  8
2
 62
    14
 10
-11.7601
 20
-2
 30
0
 70
     0
  0
VERTEX
  8
2
 62
    14
 10
-11.841
 20
-2
 30
0
 70
     0
  0
VERTEX
  8
2
 62
    14
 10
-12.0866
 20
-2
 30
0
 70
     0
  0
VERTEX
  8
2
 62
    14
 10
-12.507
 20
-2
 30
0
 70
     0
  0
VERTEX
  8
2
 62
    14
 10
-12.8722
 20
-2
 30
0
 70
     0
  0
VERTEX
  8
2
 62
    14
 10
-13.2669
 20
-2
 30
0
 70
     0
  0
VERTEX
  8
2
 62
    14
 10
-14.6038
 20
-2
 30
0
 70
     0
  0
VERTEX
  8
2
 62
    14
 10
-16.3831
 20
-2
 30
0
 70
     0
  0
VERTEX
  8
2
 62
    14
 10
-18.7234
 20
-2
 30
0
 70
     0
  0
VERTEX
  8
2
 62
    14
 10
-19.4362
 20
-2
 30
0
 70
     0
  0
VERTEX
  8
2
 62
    14
 10
-24.61
 20
-2
 30
0
 70
     0
  0
VERTEX
  8
2
 62
    14
 10
-26.0248
 20
-2
 30
0
 70
     0
  0
VERTEX
  8
2
 62
    14
 10
-32.6124
 20
-2
 30
0
 70
     0
  0
VERTEX
  8
2
 62
    14
 10
-33.2131
 20
-2
 30
0
 70
     0
  0
VERTEX
  8
2
 62
    14
 10
-39.1731
 20
-2
 30
0
 70
     0
  0
VERTEX
  8
2
 62
    14
 10
-39.7782
 20
-2
 30
0
 70
     0
  0
VERTEX
  8
2
 62
    14
 10
-43.0757
 20
-2
 30
0
 70
     0
  0
VERTEX
  8
2
 62
    14
 10
-45.677
 20
-2
 30
0
 70
     0
  0
VERTEX
  8
2
 62
    14
 10
-45.8252
 20
-2
 30
0
 70
     0
  0
VERTEX
  8
2
 62
    14
 10
-47.3761
 20
-2
 30
0
 70
     0
  0
VERTEX
  8
2
 62
    14
 10
-48.5771
 20
-2
 30
0
 70
     0
  0
VERTEX
  8
2
 62
    14
 10
-49.4328
 20
-2
 30
0
 70
     0
  0
VERTEX
  8
2
 62
    14
 10
-49.9461
 20
-2
 30
0
 70
     0
  0
VERTEX
  8
2
 62
    14
 10
-50.1181
 20
-2
 30
0
 70
     0
  0
SEQEND
  0
POLYLINE
  8
2
 62
    14
 66
     1
 10
0
 20
0
 30
0
 70
     0
  0
VERTEX
  8
2
 62
    14
 10
-5.56656
 20
-1
 30
0
 70
     0
  0
VERTEX
  8
2
 62
    14
 10
-5.60635
 20
-1
 30
0
 70
     0
  0
VERTEX
  8
2
 62
    14
 10
-5.72764
 20
-1
 30
0
 70
     0
  0
VERTEX
  8
2
 62
    14
 10
-5.93499
 20
-1
 30
0
 70
     0
  0
VERTEX
  8
2
 62
    14
 10
-6.23644
 20
-1
 30
0
 70
     0
  0
VERTEX
  8
2
 62
    14
 10
-6.39019
 20
-1
 30
0
 70
     0
  0
VERTEX
  8
2
 62
    14
 10
-6.76982
 20
-1
 30
0
 70
     0
  0
VERTEX
  8
2
 62
    14
 10
-7.56893
 20
-1
 30
0
 70
     0
  0
VERTEX
  8
2
 62
    14
 10
-8.60171
 20
-1
 30
0
 70
     0
  0
VERTEX
  8
2
 62
    14
 10
-9.93158
 20
-1
 30
0
 70
     0
  0
VERTEX
  8
2
 62
    14
 10
-11.6536
 20
-1
 30
0
 70
     0
  0
VERTEX
  8
2
 62
    14
 10
-12.9053
 20
-1
 30
0
 70
     0
  0
VERTEX
  8
2
 62
    14
 10
-14.6418
 20
-1
 30
0
 70
     0
  0
VERTEX
  8
2
 62
    14
 10
-19.4724
 20
-1
 30
0
 70
     0
  0
VERTEX
  8
2
 62
    14
 10
-21.2682
 20
-1
 30
0
 70
     0
  0
VERTEX
  8
2
 62
    14
 10
-26.0615
 20
-1
 30
0
 70
     0
  0
VERTEX
  8
2
 62
    14
 10
-32.1577
 20
-1
 30
0
 70
     0
  0
VERTEX
  8
2
 62
    14
 10
-32.651
 20
-1
 30
0
 70
     0
  0
VERTEX
  8
2
 62
    14
 10
-39.2176
 20
-1
 30
0
 70
     0
  0
VERTEX
  8
2
 62
    14
 10
-40.368
 20
-1
 30
0
 70
     0
  0
VERTEX
  8
2
 62
    14
 10
-45.1003
 20
-1
 30
0
 70
     0
  0
VERTEX
  8
2
 62
    14
 10
-45.7386
 20
-1
 30
0
 70
     0
  0
VERTEX
  8
2
 62
    14
 10
-48.27
 20
-1
 30
0
 70
     0
  0
VERTEX
  8
2
 62
    14
 10
-50.8707
 20
-1
 30
0
 70
     0
  0
VERTEX
  8
2
 62
    14
 10
-52.1928
 20
-1
 30
0
 70
     0
  0
VERTEX
  8
2
 62
    14
 10
-52.8929
 20
-1
 30
0
 70
     0
  0
VERTEX
  8
2
 62
    14
 10
-54.3244
 20
-1
 30
0
 70
     0
  0
VERTEX
  8
2
 62
    14
 10
-55.4803
 20
-1
 30
0
 70
     0
  0
VERTEX
  8
2
 62
    14
 10
-56.3703
 20
-1
 30
0
 70
     0
  0
VERTEX
  8
2
 62
    14
 10
-57.0015
 20
-1
 30
0
 70
     0
  0
VERTEX
  8
2
 62
    14
 10
-57.3788
 20
-1
 30
0
 70
     0
  0
VERTEX
  8
2
 62
    14
 10
-57.5051
 20
-1
 30
0
 70
     0
  0
SEQEND
  0
POLYLINE
  8
2
 62
    14
 66
     1
 10
0
 20
0
 30
0
 70
     0
  0
VERTEX
  8
2
 62
    14
 10
-1.12752
 20
0
 30
0
 70
     0
  0
VERTEX
  8
2
 62
    14
 10
-1.15396
 20
0
 30
0
 70
     0
  0
VERTEX
  8
2
 62
    14
 10
-1.23435
 20
0
 30
0
 70
     0
  0
VERTEX
  8
2
 62
    14
 10
-1.37171
 20
0
 30
0
 70
     0
  0
VERTEX
  8
2
 62
    14
 10
-1.57138
 20
0
 30
0
 70
     0
  0
VERTEX
  8
2
 62
    14
 10
-1.84157
 20
0
 30
0
 70
     0
  0
VERTEX
  8
2
 62
    14
 10
-2.19423
 20
0
 30
0
 70
     0
  0
VERTEX
  8
2
 62
    14
 10
-2.64652
 20
0
 30
0
 70
     0
  0
VERTEX
  8
2
 62
    14
 10
-3.22309
 20
0
 30
0
 70
     0
  0
VERTEX
  8
2
 62
    14
 10
-3.95998
 20
0
 30
0
 70
     0
  0
VERTEX
  8
2
 62
    14
 10
-4.91138
 20
0
 30
0
 70
     0
  0
VERTEX
  8
2
 62
    14
 10
-6.16189
 20
0
 30
0
 70
     0
  0
VERTEX
  8
2
 62
    14
 10
-6.41681
 20
0
 30
0
 70
     0
  0
VERTEX
  8
2
 62
    14
 10
-8.69585
 20
0
 30
0
 70
     0
  0
VERTEX
  8
2
 62
    14
 10
-12.6287
 20
0
 30
0
 70
     0
  0
VERTEX
  8
2
 62
    14
 10
-12.9384
 20
0
 30
0
 70
     0
  0
VERTEX
  8
2
 62
    14
 10
-19.5042
 20
0
 30
0
 70
     0
  0
VERTEX
  8
2
 62
    14
 10
-26.0908
 20
0
 30
0
 70
     0
  0
VERTEX
  8
2
 62
    14
 10
-32.678
 20
0
 30
0
 70
     0
  0
VERTEX
  8
2
 62
    14
 10
-35.1548
 20
0
 30
0
 70
     0
  0
VERTEX
  8
2
 62
    14
 10
-39.2446
 20
0
 30
0
 70
     0
  0
VERTEX
  8
2
 62
    14
 10
-42.6351
 20
0
 30
0
 70
     0
  0
VERTEX
  8
2
 62
    14
 10
-45.7691
 20
0
 30
0
 70
     0
  0
VERTEX
  8
2
 62
    14
 10
-47.593
 20
0
 30
0
 70
     0
  0
VERTEX
  8
2
 62
    14
 10
-51.302
 20
0
 30
0
 70
     0
  0
VERTEX
  8
2
 62
    14
 10
-52.2332
 20
0
 30
0
 70
     0
  0
VERTEX
  8
2
 62
    14
 10
-54.0904
 20
0
 30
0
 70
     0
  0
VERTEX
  8
2
 62
    14
 10
-56.349
 20
0
 30
0
 70
     0
  0
VERTEX
  8
2
 62
    14
 10
-58.2982
 20
0
 30
0
 70
     0
  0
VERTEX
  8
2
 62
    14
 10
-58.63
 20
0
 30
0
 70
     0
  0
VERTEX
  8
2
 62
    14
 10
-59.7076
 20
0
 30
0
 70
     0
  0
VERTEX
  8
2
 62
    14
 10
-60.8235
 20
0
 30
0
 70
     0
  0
VERTEX
  8
2
 62
    14
 10
-61.7202
 20
0
 30
0
 70
     0
  0
VERTEX
  8
2
 62
    14
 10
-62.4077
 20
0
 30
0
 70
     0
  0
VERTEX
  8
2
 62
    14
 10
-62.8936
 20
0
 30
0
 70
     0
  0
VERTEX
  8
2
 62
    14
 10
-63.1829
 20
0
 30
0
 70
     0
  0
VERTEX
  8
2
 62
    14
 10
-63.2788
 20
0
 30
0
 70
     0
  0
SEQEND
  0
POLYLINE
  8
2
 62
    14
 66
     1
 10
0
 20
0
 30
0
 70
     0
  0
VERTEX
  8
2
 62
    14
 10
0
 20
1
 30
0
 70
     0
  0
VERTEX
  8
2
 62
    14
 10
-1.16809
 20
1
 30
0
 70
     0
  0
VERTEX
  8
2
 62
    14
 10
-2.91396
 20
1
 30
0
 70
     0
  0
VERTEX
  8
2
 62
    14
 10
-5.75829
 20
1
 30
0
 70
     0
  0
VERTEX
  8
2
 62
    14
 10
-6.44768
 20
1
 30
0
 70
     0
  0
VERTEX
  8
2
 62
    14
 10
-12.9716
 20
1
 30
0
 70
     0
  0
VERTEX
  8
2
 62
    14
 10
-19.5341
 20
1
 30
0
 70
     0
  0
VERTEX
  8
2
 62
    14
 10
-26.116
 20
1
 30
0
 70
     0
  0
VERTEX
  8
2
 62
    14
 10
-32.699
 20
1
 30
0
 70
     0
  0
VERTEX
  8
2
 62
    14
 10
-34.7027
 20
1
 30
0
 70
     0
  0
VERTEX
  8
2
 62
    14
 10
-39.2627
 20
1
 30
0
 70
     0
  0
VERTEX
  8
2
 62
    14
 10
-42.9081
 20
1
 30
0
 70
     0
  0
VERTEX
  8
2
 62
    14
 10
-45.7869
 20
1
 30
0
 70
     0
  0
VERTEX
  8
2
 62
    14
 10
-48.5184
 20
1
 30
0
 70
     0
  0
VERTEX
  8
2
 62
    14
 10
-52.2533
 20
1
 30
0
 70
     0
  0
VERTEX
  8
2
 62
    14
 10
-52.847
 20
1
 30
0
 70
     0
  0
VERTEX
  8
2
 62
    14
 10
-56.0513
 20
1
 30
0
 70
     0
  0
VERTEX
  8
2
 62
    14
 10
-58.6525
 20
1
 30
0
 70
     0
  0
VERTEX
  8
2
 62
    14
 10
-58.8438
 20
1
 30
0
 70
     0
  0
VERTEX
  8
2
 62
    14
 10
-60.8905
 20
1
 30
0
 70
     0
  0
VERTEX
  8
2
 62
    14
 10
-62.6599
 20
1
 30
0
 70
     0
  0
VERTEX
  8
2
 62
    14
 10
-64.1749
 20
1
 30
0
 70
     0
  0
VERTEX
  8
2
 62
    14
 10
-65
 20
1
 30
0
 70
     0
  0
SEQEND
  0
POLYLINE
  8
2
 62
    14
 66
     1
 10
0
 20
0
 30
0
 70
     0
  0
VERTEX
  8
2
 62
    14
 10
0
 20
2
 30
0
 70
     0
  0
VERTEX
  8
2
 62
    14
 10
-6.47987
 20
2
 30
0
 70
     0
  0
VERTEX
  8
2
 62
    14
 10
-13.0047
 20
2
 30
0
 70
     0
  0
VERTEX
  8
2
 62
    14
 10
-15.2599
 20
2
 30
0
 70
     0
  0
VERTEX
  8
2
 62
    14
 10
-19.5626
 20
2
 30
0
 70
     0
  0
VERTEX
  8
2
 62
    14
 10
-26.1387
 20
2
 30
0
 70
     0
  0
VERTEX
  8
2
 62
    14
 10
-31.7278
 20
2
 30
0
 70
     0
  0
VERTEX
  8
2
 62
    14
 10
-32.7159
 20
2
 30
0
 70
     0
  0
VERTEX
  8
2
 62
    14
 10
-39.2752
 20
2
 30
0
 70
     0
  0
VERTEX
  8
2
 62
    14
 10
-41.2949
 20
2
 30
0
 70
     0
  0
VERTEX
  8
2
 62
    14
 10
-45.7972
 20
2
 30
0
 70
     0
  0
VERTEX
  8
2
 62
    14
 10
-48.0029
 20
2
 30
0
 70
     0
  0
VERTEX
  8
2
 62
    14
 10
-52.2636
 20
2
 30
0
 70
     0
  0
VERTEX
  8
2
 62
    14
 10
-53.113
 20
2
 30
0
 70
     0
  0
VERTEX
  8
2
 62
    14
 10
-57.0074
 20
2
 30
0
 70
     0
  0
VERTEX
  8
2
 62
    14
 10
-58.6629
 20
2
 30
0
 70
     0
  0
VERTEX
  8
2
 62
    14
 10
-60.1757
 20
2
 30
0
 70
     0
  0
VERTEX
  8
2
 62
    14
 10
-62.7217
 20
2
 30
0
 70
     0
  0
VERTEX
  8
2
 62
    14
 10
-64.9466
 20
2
 30
0
 70
     0
  0
VERTEX
  8
2
 62
    14
 10
-65
 20
2
 30
0
 70
     0
  0
SEQEND
  0
POLYLINE
  8
2
 62
    14
 66
     1
 10
0
 20
0
 30
0
 70
     0
  0
VERTEX
  8
2
 62
    14
 10
-14.733
 20
3
 30
0
 70
     0
  0
VERTEX
  8
2
 62
    14
 10
-19.5903
 20
3
 30
0
 70
     0
  0
VERTEX
  8
2
 62
    14
 10
-26.1595
 20
3
 30
0
 70
     0
  0
VERTEX
  8
2
 62
    14
 10
-26.7605
 20
3
 30
0
 70
     0
  0
VERTEX
  8
2
 62
    14
 10
-32.7298
 20
3
 30
0
 70
     0
  0
VERTEX
  8
2
 62
    14
 10
-37.596
 20
3
 30
0
 70
     0
  0
VERTEX
  8
2
 62
    14
 10
-39.2837
 20
3
 30
0
 70
     0
  0
VERTEX
  8
2
 62
    14
 10
-45.8025
 20
3
 30
0
 70
     0
  0
VERTEX
  8
2
 62
    14
 10
-45.9463
 20
3
 30
0
 70
     0
  0
VERTEX
  8
2
 62
    14
 10
-52.1468
 20
3
 30
0
 70
     0
  0
VERTEX
  8
2
 62
    14
 10
-52.2681
 20
3
 30
0
 70
     0
  0
VERTEX
  8
2
 62
    14
 10
-56.8626
 20
3
 30
0
 70
     0
  0
VERTEX
  8
2
 62
    14
 10
-58.6675
 20
3
 30
0
 70
     0
  0
VERTEX
  8
2
 62
    14
 10
-60.6876
 20
3
 30
0
 70
     0
  0
VERTEX
  8
2
 62
    14
 10
-63.812
 20
3
 30
0
 70
     0
  0
VERTEX
  8
2
 62
    14
 10
-65
 20
3
 30
0
 70
     0
  0
SEQEND
  0
POLYLINE
  8
2
 62
    14
 66
     1
 10
0
 20
0
 30
0
 70
     0
  0
VERTEX
  8
2
 62
    14
 10
-31.9615
 20
4
 30
0
 70
     0
  0
VERTEX
  8
2
 62
    14
 10
-32.7417
 20
4
 30
0
 70
     0
  0
VERTEX
  8
2
 62
    14
 10
-39.289
 20
4
 30
0
 70
     0
  0
VERTEX
  8
2
 62
    14
 10
-41.6309
 20
4
 30
0
 70
     0
  0
VERTEX
  8
2
 62
    14
 10
-45.8037
 20
4
 30
0
 70
     0
  0
VERTEX
  8
2
 62
    14
 10
-49.4065
 20
4
 30
0
 70
     0
  0
VERTEX
  8
2
 62
    14
 10
-52.2681
 20
4
 30
0
 70
     0
  0
VERTEX
  8
2
 62
    14
 10
-55.4578
 20
4
 30
0
 70
     0
  0
VERTEX
  8
2
 62
    14
 10
-58.6685
 20
4
 30
0
 70
     0
  0
VERTEX
  8
2
 62
    14
 10
-60.247
 20
4
 30
0
 70
     0
  0
VERTEX
  8
2
 62
    14
 10
-64.0726
 20
4
 30
0
 70
     0
  0
VERTEX
  8
2
 62
    14
 10
-65
 20
4
 30
0
 70
     0
  0
SEQEND
  0
POLYLINE
  8
2
 62
    14
 66
     1
 10
0
 20
0
 30
0
 70
     0
  0
VERTEX
  8
2
 62
    14
 10
-44.8048
 20
5
 30
0
 70
     0
  0
VERTEX
  8
2
 62
    14
 10
-45.8022
 20
5
 30
0
 70
     0
  0
VERTEX
  8
2
 62
    14
 10
-52.2653
 20
5
 30
0
 70
     0
  0
VERTEX
  8
2
 62
    14
 10
-52.5434
 20
5
 30
0
 70
     0
  0
VERTEX
  8
2
 62
    14
 10
-58.6222
 20
5
 30
0
 70
     0
  0
VERTEX
  8
2
 62
    14
 10
-58.6669
 20
5
 30
0
 70
     0
  0
VERTEX
  8
2
 62
    14
 10
-63.3445
 20
5
 30
0
 70
     0
  0
VERTEX
  8
2
 62
    14
 10
-65
 20
5
 30
0
 70
     0
  0
SEQEND
  0
POLYLINE
  8
2
 62
    14
 66
     1
 10
0
 20
0
 30
0
 70
     0
  0
VERTEX
  8
2
 62
    14
 10
-55.1349
 20
6
 30
0
 70
     0
  0
VERTEX
  8
2
 62
    14
 10
-58.6633
 20
6
 30
0
 70
     0
  0
VERTEX
  8
2
 62
    14
 10
-61.3571
 20
6
 30
0
 70
     0
  0
VERTEX
  8
2
 62
    14
 10
-65
 20
6
 30
0
 70
     0
  0
SEQEND
  0
POLYLINE
  8
2
 62
    14
 66
     1
 10
0
 20
0
 30
0
 70
     0
  0
VERTEX
  8
2
 62
    14
 10
-64.0688
 20
7
 30
0
 70
     0
  0
VERTEX
  8
2
 62
    14
 10
-65
 20
7
 30
0
 70
     0
  0
SEQEND
  0
POLYLINE
  8
2
 62
    14
 66
     1
 10
0
 20
0
 30
0
 70
     0
  0
VERTEX
  8
2
 62
    14
 10
-22.7983
 20
-3
 30
0
 70
     0
  0
VERTEX
  8
2
 62
    14
 10
-22.7984
 20
-3
 30
0
 70
     0
  0
VERTEX
  8
2
 62
    14
 10
-22.7984
 20
-3
 30
0
 70
     0
  0
VERTEX
  8
2
 62
    14
 10
-22.7985
 20
-3
 30
0
 70
     0
  0
VERTEX
  8
2
 62
    14
 10
-22.7986
 20
-3
 30
0
 70
     0
  0
VERTEX
  8
2
 62
    14
 10
-22.7986
 20
-3
 30
0
 70
     0
  0
VERTEX
  8
2
 62
    14
 10
-22.7986
 20
-3
 30
0
 70
     0
  0
VERTEX
  8
2
 62
    14
 10
-22.7987
 20
-3
 30
0
 70
     0
  0
VERTEX
  8
2
 62
    14
 10
-22.7987
 20
-3
 30
0
 70
     0
  0
VERTEX
  8
2
 62
    14
 10
-22.7987
 20
-3
 30
0
 70
     0
  0
VERTEX
  8
2
 62
    14
 10
-22.7987
 20
-3
 30
0
 70
     0
  0
SEQEND
  0
POLYLINE
  8
2
 62
    14
 66
     1
 10
0
 20
0
 30
0
 70
     0
  0
VERTEX
  8
2
 62
    14
 10
-38.3343
 20
-3
 30
0
 70
     0
  0
VERTEX
  8
2
 62
    14
 10
-38.3344
 20
-3
 30
0
 70
     0
  0
VERTEX
  8
2
 62
    14
 10
-38.3345
 20
-3
 30
0
 70
     0
  0
VERTEX
  8
2
 62
    14
 10
-38.3346
 20
-3
 30
0
 70
     0
  0
VERTEX
  8
2
 62
    14
 10
-38.3346
 20
-3
 30
0
 70
     0
  0
VERTEX
  8
2
 62
    14
 10
-38.3347
 20
-3
 30
0
 70
     0
  0
VERTEX
  8
2
 62
    14
 10
-38.3347
 20
-3
 30
0
 70
     0
  0
VERTEX
  8
2
 62
    14
 10
-38.3348
 20
-3
 30
0
 70
     0
  0
VERTEX
  8
2
 62
    14
 10
-38.3348
 20
-3
 30
0
 70
     0
  0
VERTEX
  8
2
 62
    14
 10
-38.3348
 20
-3
 30
0
 70
     0
  0
VERTEX
  8
2
 62
    14
 10
-38.3348
 20
-3
 30
0
 70
     0
  0
SEQEND
  0
POLYLINE
  8
2
 62
    14
 66
     1
 10
0
 20
0
 30
0
 70
     0
  0
VERTEX
  8
2
 62
    14
 10
-11.6301
 20
-2
 30
0
 70
     0
  0
VERTEX
  8
2
 62
    14
 10
-11.6301
 20
-2
 30
0
 70
     0
  0
VERTEX
  8
2
 62
    14
 10
-11.6301
 20
-2
 30
0
 70
     0
  0
VERTEX
  8
2
 62
    14
 10
-11.6301
 20
-2
 30
0
 70
     0
  0
VERTEX
  8
2
 62
    14
 10
-11.6301
 20
-2
 30
0
 70
     0
  0
VERTEX
  8
2
 62
    14
 10
-11.6301
 20
-2
 30
0
 70
     0
  0
VERTEX
  8
2
 62
    14
 10
-11.6301
 20
-2
 30
0
 70
     0
  0
VERTEX
  8
2
 62
    14
 10
-11.6301
 20
-2
 30
0
 70
     0
  0
VERTEX
  8
2
 62
    14
 10
-11.6301
 20
-2
 30
0
 70
     0
  0
VERTEX
  8
2
 62
    14
 10
-11.6301
 20
-2
 30
0
 70
     0
  0
VERTEX
  8
2
 62
    14
 10
-11.6301
 20
-2
 30
0
 70
     0
  0
SEQEND
  0
POLYLINE
  8
2
 62
    14
 66
     1
 10
0
 20
0
 30
0
 70
     0
  0
VERTEX
  8
2
 62
    14
 10
-50.2666
 20
-2
 30
0
 70
     0
  0
VERTEX
  8
2
 62
    14
 10
-50.2666
 20
-2
 30
0
 70
     0
  0
VERTEX
  8
2
 62
    14
 10
-50.2665
 20
-2
 30
0
 70
     0
  0
VERTEX
  8
2
 62
    14
 10
-50.2665
 20
-2
 30
0
 70
     0
  0
VERTEX
  8
2
 62
    14
 10
-50.2665
 20
-2
 30
0
 70
     0
  0
VERTEX
  8
2
 62
    14
 10
-50.2665
 20
-2
 30
0
 70
     0
  0
VERTEX
  8
2
 62
    14
 10
-50.2665
 20
-2
 30
0
 70
     0
  0
VERTEX
  8
2
 62
    14
 10
-50.2665
 20
-2
 30
0
 70
     0
  0
VERTEX
  8
2
 62
    14
 10
-50.2665
 20
-2
 30
0
 70
     0
  0
VERTEX
  8
2
 62
    14
 10
-50.2665
 20
-2
 30
0
 70
     0
  0
VERTEX
  8
2
 62
    14
 10
-50.2665
 20
-2
 30
0
 70
     0
  0
SEQEND
  0
POLYLINE
  8
2
 62
    14
 66
     1
 10
0
 20
0
 30
0
 70
     0
  0
VERTEX
  8
2
 62
    14
 10
-5.48144
 20
-1
 30
0
 70
     0
  0
VERTEX
  8
2
 62
    14
 10
-5.48144
 20
-1
 30
0
 70
     0
  0
VERTEX
  8
2
 62
    14
 10
-5.48144
 20
-1
 30
0
 70
     0
  0
VERTEX
  8
2
 62
    14
 10
-5.48145
 20
-1
 30
0
 70
     0
  0
VERTEX
  8
2
 62
    14
 10
-5.48145
 20
-1
 30
0
 70
     0
  0
VERTEX
  8
2
 62
    14
 10
-5.48145
 20
-1
 30
0
 70
     0
  0
VERTEX
  8
2
 62
    14
 10
-5.48145
 20
-1
 30
0
 70
     0
  0
VERTEX
  8
2
 62
    14
 10
-5.48145
 20
-1
 30
0
 70
     0
  0
VERTEX
  8
2
 62
    14
 10
-5.48145
 20
-1
 30
0
 70
     0
  0
VERTEX
  8
2
 62
    14
 10
-5.48145
 20
-1
 30
0
 70
     0
  0
VERTEX
  8
2
 62
    14
 10
-5.48145
 20
-1
 30
0
 70
     0
  0
SEQEND
  0
POLYLINE
  8
2
 62
    14
 66
     1
 10
0
 20
0
 30
0
 70
     0
  0
VERTEX
  8
2
 62
    14
 10
-57.5643
 20
-1
 30
0
 70
     0
  0
VERTEX
  8
2
 62
    14
 10
-57.5643
 20
-1
 30
0
 70
     0
  0
VERTEX
  8
2
 62
    14
 10
-57.5643
 20
-1
 30
0
 70
     0
  0
VERTEX
  8
2
 62
    14
 10
-57.5643
 20
-1
 30
0
 70
     0
  0
VERTEX
  8
2
 62
    14
 10
-57.5643
 20
-1
 30
0
 70
     0
  0
VERTEX
  8
2
 62
    14
 10
-57.5643
 20
-1
 30
0
 70
     0
  0
VERTEX
  8
2
 62
    14
 10
-57.5643
 20
-1
 30
0
 70
     0
  0
VERTEX
  8
2
 62
    14
 10
-57.5643
 20
-1
 30
0
 70
     0
  0
VERTEX
  8
2
 62
    14
 10
-57.5643
 20
-1
 30
0
 70
     0
  0
VERTEX
  8
2
 62
    14
 10
-57.5643
 20
-1
 30
0
 70
     0
  0
VERTEX
  8
2
 62
    14
 10
-57.5643
 20
-1
 30
0
 70
     0
  0
SEQEND
  0
POLYLINE
  8
2
 62
    14
 66
     1
 10
0
 20
0
 30
0
 70
     0
  0
VERTEX
  8
2
 62
    14
 10
-1.03084
 20
0
 30
0
 70
     0
  0
VERTEX
  8
2
 62
    14
 10
-1.03084
 20
0
 30
0
 70
     0
  0
VERTEX
  8
2
 62
    14
 10
-1.03084
 20
0
 30
0
 70
     0
  0
VERTEX
  8
2
 62
    14
 10
-1.03084
 20
0
 30
0
 70
     0
  0
VERTEX
  8
2
 62
    14
 10
-1.03084
 20
0
 30
0
 70
     0
  0
VERTEX
  8
2
 62
    14
 10
-1.03084
 20
0
 30
0
 70
     0
  0
VERTEX
  8
2
 62
    14
 10
-1.03084
 20
0
 30
0
 70
     0
  0
VERTEX
  8
2
 62
    14
 10
-1.03085
 20
0
 30
0
 70
     0
  0
VERTEX
  8
2
 62
    14
 10
-1.03085
 20
0
 30
0
 70
     0
  0
VERTEX
  8
2
 62
    14
 10
-1.03085
 20
0
 30
0
 70
     0
  0
VERTEX
  8
2
 62
    14
 10
-1.03085
 20
0
 30
0
 70
     0
  0
SEQEND
  0
POLYLINE
  8
2
 62
    14
 66
     1
 10
0
 20
0
 30
0
 70
     0
  0
VERTEX
  8
2
 62
    14
 10
-63.3592
 20
0
 30
0
 70
     0
  0
VERTEX
  8
2
 62
    14
 10
-63.3592
 20
0
 30
0
 70
     0
  0
VERTEX
  8
2
 62
    14
 10
-63.3592
 20
0
 30
0
 70
     0
  0
VERTEX
  8
2
 62
    14
 10
-63.3592
 20
0
 30
0
 70
     0
  0
VERTEX
  8
2
 62
    14
 10
-63.3592
 20
0
 30
0
 70
     0
  0
VERTEX
  8
2
 62
    14
 10
-63.3592
 20
0
 30
0
 70
     0
  0
VERTEX
  8
2
 62
    14
 10
-63.3592
 20
0
 30
0
 70
     0
  0
VERTEX
  8
2
 62
    14
 10
-63.3592
 20
0
 30
0
 70
     0
  0
VERTEX
  8
2
 62
    14
 10
-63.3592
 20
0
 30
0
 70
     0
  0
VERTEX
  8
2
 62
    14
 10
-63.3592
 20
0
 30
0
 70
     0
  0
VERTEX
  8
2
 62
    14
 10
-63.3592
 20
0
 30
0
 70
     0
  0
SEQEND
  0
POLYLINE
  8
3
 62
    15
 66
     1
 10
0
 20
0
 30
0
 70
     0
  0
VERTEX
  8
3
 62
    15
 10
3.25
 20
-10.9276
 30
0
 70
     0
  0
VERTEX
  8
3
 62
    15
 10
-68.25
 20
-10.9276
 30
0
 70
     0
  0
SEQEND
  0
POLYLINE
  8
3
 62
    15
 66
     1
 10
0
 20
0
 30
0
 70
     0
  0
VERTEX
  8
3
 62
    15
 10
0
 20
-10.4136
 30
0
 70
     0
  0
VERTEX
  8
3
 62
    15
 10
-3.18125
 20
-10.3429
 30
0
 70
     0
  0
VERTEX
  8
3
 62
    15
 10
-6.38995
 20
-10.2796
 30
0
 70
     0
  0
VERTEX
  8
3
 62
    15
 10
-9.62032
 20
-10.2252
 30
0
 70
     0
  0
VERTEX
  8
3
 62
    15
 10
-12.8666
 20
-10.1811
 30
0
 70
     0
  0
VERTEX
  8
3
 62
    15
 10
-16.1234
 20
-10.1487
 30
0
 70
     0
  0
VERTEX
  8
3
 62
    15
 10
-19.3878
 20
-10.1281
 30
0
 70
     0
  0
VERTEX
  8
3
 62
    15
 10
-22.6575
 20
-10.1191
 30
0
 70
     0
  0
VERTEX
  8
3
 62
    15
 10
-25.9308
 20
-10.1224
 30
0
 70
     0
  0
VERTEX
  8
3
 62
    15
 10
-29.2061
 20
-10.1386
 30
0
 70
     0
  0
VERTEX
  8
3
 62
    15
 10
-32.4818
 20
-10.1674
 30
0
 70
     0
  0
VERTEX
  8
3
 62
    15
 10
-35.7566
 20
-10.2084
 30
0
 70
     0
  0
VERTEX
  8
3
 62
    15
 10
-39.0291
 20
-10.2621
 30
0
 70
     0
  0
VERTEX
  8
3
 62
    15
 10
-42.298
 20
-10.3287
 30
0
 70
     0
  0
VERTEX
  8
3
 62
    15
 10
-45.562
 20
-10.4072
 30
0
 70
     0
  0
VERTEX
  8
3
 62
    15
 10
-48.8202
 20
-10.4959
 30
0
 70
     0
  0
VERTEX
  8
3
 62
    15
 10
-52.0718
 20
-10.5928
 30
0
 70
     0
  0
VERTEX
  8
3
 62
    15
 10
-55.3162
 20
-10.6939
 30
0
 70
     0
  0
VERTEX
  8
3
 62
    15
 10
-58.5528
 20
-10.789
 30
0
 70
     0
  0
VERTEX
  8
3
 62
    15
 10
-61.781
 20
-10.8662
 30
0
 70
     0
  0
VERTEX
  8
3
 62
    15
 10
-65
 20
-10.9136
 30
0
 70
     0
  0
SEQEND
  0
POLYLINE
  8
3
 62
    15
 66
     1
 10
0
 20
0
 30
0
 70
     0
  0
VERTEX
  8
3
 62
    15
 10
0
 20
-10.9276
 30
0
 70
     0
  0
VERTEX
  8
3
 62
    15
 10
-3.18144
 20
-10.9276
 30
0
 70
     0
  0
VERTEX
  8
3
 62
    15
 10
-6.39017
 20
-10.9276
 30
0
 70
     0
  0
VERTEX
  8
3
 62
    15
 10
-9.62041
 20
-10.9276
 30
0
 70
     0
  0
VERTEX
  8
3
 62
    15
 10
-12.8664
 20
-10.9276
 30
0
 70
     0
  0
VERTEX
  8
3
 62
    15
 10
-16.1228
 20
-10.9276
 30
0
 70
     0
  0
VERTEX
  8
3
 62
    15
 10
-19.3867
 20
-10.9276
 30
0
 70
     0
  0
VERTEX
  8
3
 62
    15
 10
-22.6558
 20
-10.9276
 30
0
 70
     0
  0
VERTEX
  8
3
 62
    15
 10
-25.9286
 20
-10.9276
 30
0
 70
     0
  0
VERTEX
  8
3
 62
    15
 10
-29.2033
 20
-10.9276
 30
0
 70
     0
  0
VERTEX
  8
3
 62
    15
 10
-32.4786
 20
-10.9276
 30
0
 70
     0
  0
VERTEX
  8
3
 62
    15
 10
-35.7531
 20
-10.9276
 30
0
 70
     0
  0
VERTEX
  8
3
 62
    15
 10
-39.0254
 20
-10.9276
 30
0
 70
     0
  0
VERTEX
  8
3
 62
    15
 10
-42.2943
 20
-10.9276
 30
0
 70
     0
  0
VERTEX
  8
3
 62
    15
 10
-45.5587
 20
-10.9276
 30
0
 70
     0
  0
VERTEX
  8
3
 62
    15
 10
-48.8175
 20
-10.9276
 30
0
 70
     0
  0
VERTEX
  8
3
 62
    15
 10
-52.07
 20
-10.9276
 30
0
 70
     0
  0
VERTEX
  8
3
 62
    15
 10
-55.3154
 20
-10.9276
 30
0
 70
     0
  0
VERTEX
  8
3
 62
    15
 10
-58.5528
 20
-10.9276
 30
0
 70
     0
  0
VERTEX
  8
3
 62
    15
 10
-61.7813
 20
-10.9276
 30
0
 70
     0
  0
VERTEX
  8
3
 62
    15
 10
-65
 20
-10.9276
 30
0
 70
     0
  0
SEQEND
  0
POLYLINE
  8
3
 62
    15
 66
     1
 10
0
 20
0
 30
0
 70
     0
  0
VERTEX
  8
3
 62
    15
 10
0
 20
-10.4136
 30
0
 70
     0
  0
VERTEX
  8
3
 62
    15
 10
0
 20
-10.465
 30
0
 70
     0
  0
VERTEX
  8
3
 62
    15
 10
0
 20
-10.5164
 30
0
 70
     0
  0
VERTEX
  8
3
 62
    15
 10
0
 20
-10.5678
 30
0
 70
     0
  0
VERTEX
  8
3
 62
    15
 10
0
 20
-10.6192
 30
0
 70
     0
  0
VERTEX
  8
3
 62
    15
 10
0
 20
-10.6706
 30
0
 70
     0
  0
VERTEX
  8
3
 62
    15
 10
0
 20
-10.722
 30
0
 70
     0
  0
VERTEX
  8
3
 62
    15
 10
0
 20
-10.7734
 30
0
 70
     0
  0
VERTEX
  8
3
 62
    15
 10
0
 20
-10.8248
 30
0
 70
     0
  0
VERTEX
  8
3
 62
    15
 10
0
 20
-10.8762
 30
0
 70
     0
  0
VERTEX
  8
3
 62
    15
 10
0
 20
-10.9276
 30
0
 70
     0
  0
SEQEND
  0
POLYLINE
  8
3
 62
    15
 66
     1
 10
0
 20
0
 30
0
 70
     0
  0
VERTEX
  8
3
 62
    15
 10
-65
 20
-10.9136
 30
0
 70
     0
  0
VERTEX
  8
3
 62
    15
 10
-65
 20
-10.915
 30
0
 70
     0
  0
VERTEX
  8
3
 62
    15
 10
-65
 20
-10.9164
 30
0
 70
     0
  0
VERTEX
  8
3
 62
    15
 10
-65
 20
-10.9178
 30
0
 70
     0
  0
VERTEX
  8
3
 62
    15
 10
-65
 20
-10.9192
 30
0
 70
     0
  0
VERTEX
  8
3
 62
    15
 10
-65
 20
-10.9206
 30
0
 70
     0
  0
VERTEX
  8
3
 62
    15
 10
-65
 20
-10.922
 30
0
 70
     0
  0
VERTEX
  8
3
 62
    15
 10
-65
 20
-10.9234
 30
0
 70
     0
  0
VERTEX
  8
3
 62
    15
 10
-65
 20
-10.9248
 30
0
 70
     0
  0
VERTEX
  8
3
 62
    15
 10
-65
 20
-10.9262
 30
0
 70
     0
  0
VERTEX
  8
3
 62
    15
 10
-65
 20
-10.9276
 30
0
 70
     0
  0
SEQEND
  0
POLYLINE
  8
3
 62
     3
 66
     1
 10
0
 20
0
 30
0
 70
     0
  0
VERTEX
  8
3
 62
     3
 10
0
 20
-7.23157
 30
0
 70
     0
  0
VERTEX
  8
3
 62
     3
 10
0
 20
-7.27847
 30
0
 70
     0
  0
VERTEX
  8
3
 62
     3
 10
0
 20
-7.33719
 30
0
 70
     0
  0
VERTEX
  8
3
 62
     3
 10
0
 20
-7.40772
 30
0
 70
     0
  0
VERTEX
  8
3
 62
     3
 10
0
 20
-7.49005
 30
0
 70
     0
  0
VERTEX
  8
3
 62
     3
 10
0
 20
-7.58419
 30
0
 70
     0
  0
VERTEX
  8
3
 62
     3
 10
0
 20
-7.69015
 30
0
 70
     0
  0
VERTEX
  8
3
 62
     3
 10
0
 20
-7.80792
 30
0
 70
     0
  0
VERTEX
  8
3
 62
     3
 10
0
 20
-7.93749
 30
0
 70
     0
  0
VERTEX
  8
3
 62
     3
 10
0
 20
-8.07887
 30
0
 70
     0
  0
VERTEX
  8
3
 62
     3
 10
0
 20
-8.23207
 30
0
 70
     0
  0
VERTEX
  8
3
 62
     3
 10
0
 20
-8.39707
 30
0
 70
     0
  0
VERTEX
  8
3
 62
     3
 10
0
 20
-8.57389
 30
0
 70
     0
  0
VERTEX
  8
3
 62
     3
 10
0
 20
-8.76252
 30
0
 70
     0
  0
VERTEX
  8
3
 62
     3
 10
0
 20
-8.96295
 30
0
 70
     0
  0
VERTEX
  8
3
 62
     3
 10
0
 20
-9.17519
 30
0
 70
     0
  0
VERTEX
  8
3
 62
     3
 10
0
 20
-9.39925
 30
0
 70
     0
  0
VERTEX
  8
3
 62
     3
 10
0
 20
-9.63512
 30
0
 70
     0
  0
VERTEX
  8
3
 62
     3
 10
0
 20
-9.88279
 30
0
 70
     0
  0
VERTEX
  8
3
 62
     3
 10
0
 20
-10.1423
 30
0
 70
     0
  0
VERTEX
  8
3
 62
     3
 10
0
 20
-10.4136
 30
0
 70
     0
  0
SEQEND
  0
POLYLINE
  8
3
 62
     3
 66
     1
 10
0
 20
0
 30
0
 70
     0
  0
VERTEX
  8
3
 62
     3
 10
-65
 20
-10.5406
 30
0
 70
     0
  0
VERTEX
  8
3
 62
     3
 10
-65
 20
-10.5347
 30
0
 70
     0
  0
VERTEX
  8
3
 62
     3
 10
-65
 20
-10.5313
 30
0
 70
     0
  0
VERTEX
  8
3
 62
     3
 10
-65
 20
-10.5306
 30
0
 70
     0
  0
VERTEX
  8
3
 62
     3
 10
-65
 20
-10.5324
 30
0
 70
     0
  0
VERTEX
  8
3
 62
     3
 10
-65
 20
-10.5369
 30
0
 70
     0
  0
VERTEX
  8
3
 62
     3
 10
-65
 20
-10.5439
 30
0
 70
     0
  0
VERTEX
  8
3
 62
     3
 10
-65
 20
-10.5535
 30
0
 70
     0
  0
VERTEX
  8
3
 62
     3
 10
-65
 20
-10.5657
 30
0
 70
     0
  0
VERTEX
  8
3
 62
     3
 10
-65
 20
-10.5805
 30
0
 70
     0
  0
VERTEX
  8
3
 62
     3
 10
-65
 20
-10.5978
 30
0
 70
     0
  0
VERTEX
  8
3
 62
     3
 10
-65
 20
-10.6178
 30
0
 70
     0
  0
VERTEX
  8
3
 62
     3
 10
-65
 20
-10.6403
 30
0
 70
     0
  0
VERTEX
  8
3
 62
     3
 10
-65
 20
-10.6654
 30
0
 70
     0
  0
VERTEX
  8
3
 62
     3
 10
-65
 20
-10.6931
 30
0
 70
     0
  0
VERTEX
  8
3
 62
     3
 10
-65
 20
-10.7234
 30
0
 70
     0
  0
VERTEX
  8
3
 62
     3
 10
-65
 20
-10.7562
 30
0
 70
     0
  0
VERTEX
  8
3
 62
     3
 10
-65
 20
-10.7917
 30
0
 70
     0
  0
VERTEX
  8
3
 62
     3
 10
-65
 20
-10.8297
 30
0
 70
     0
  0
VERTEX
  8
3
 62
     3
 10
-65
 20
-10.8704
 30
0
 70
     0
  0
VERTEX
  8
3
 62
     3
 10
-65
 20
-10.9136
 30
0
 70
     0
  0
SEQEND
  0
POLYLINE
  8
3
 62
     3
 66
     1
 10
0
 20
0
 30
0
 70
     0
  0
VERTEX
  8
3
 62
     3
 10
0
 20
-7.23157
 30
0
 70
     0
  0
VERTEX
  8
3
 62
     3
 10
-6.49983
 20
-6.20159
 30
0
 70
     0
  0
VERTEX
  8
3
 62
     3
 10
-13.0349
 20
-5.43426
 30
0
 70
     0
  0
VERTEX
  8
3
 62
     3
 10
-19.597
 20
-4.96903
 30
0
 70
     0
  0
VERTEX
  8
3
 62
     3
 10
-26.1718
 20
-4.82705
 30
0
 70
     0
  0
VERTEX
  8
3
 62
     3
 10
-32.7422
 20
-5.0154
 30
0
 70
     0
  0
VERTEX
  8
3
 62
     3
 10
-39.291
 20
-5.53242
 30
0
 70
     0
  0
VERTEX
  8
3
 62
     3
 10
-45.8021
 20
-6.36618
 30
0
 70
     0
  0
VERTEX
  8
3
 62
     3
 10
-52.2618
 20
-7.50022
 30
0
 70
     0
  0
VERTEX
  8
3
 62
     3
 10
-58.6616
 20
-8.90514
 30
0
 70
     0
  0
VERTEX
  8
3
 62
     3
 10
-65
 20
-10.5406
 30
0
 70
     0
  0
SEQEND
  0
POLYLINE
  8
3
 62
     3
 66
     1
 10
0
 20
0
 30
0
 70
     0
  0
VERTEX
  8
3
 62
     3
 10
0
 20
-10.4136
 30
0
 70
     0
  0
VERTEX
  8
3
 62
     3
 10
-6.39003
 20
-10.2796
 30
0
 70
     0
  0
VERTEX
  8
3
 62
     3
 10
-12.8666
 20
-10.1811
 30
0
 70
     0
  0
VERTEX
  8
3
 62
     3
 10
-19.3878
 20
-10.1281
 30
0
 70
     0
  0
VERTEX
  8
3
 62
     3
 10
-25.9308
 20
-10.1224
 30
0
 70
     0
  0
VERTEX
  8
3
 62
     3
 10
-32.4818
 20
-10.1674
 30
0
 70
     0
  0
VERTEX
  8
3
 62
     3
 10
-39.0291
 20
-10.2621
 30
0
 70
     0
  0
VERTEX
  8
3
 62
     3
 10
-45.562
 20
-10.4072
 30
0
 70
     0
  0
VERTEX
  8
3
 62
     3
 10
-52.0718
 20
-10.5928
 30
0
 70
     0
  0
VERTEX
  8
3
 62
     3
 10
-58.5528
 20
-10.7889
 30
0
 70
     0
  0
VERTEX
  8
3
 62
     3
 10
-65
 20
-10.9136
 30
0
 70
     0
  0
SEQEND
  0
POLYLINE
  8
3
 62
    11
 66
     1
 10
0
 20
0
 30
0
 70
     0
  0
VERTEX
  8
3
 62
    11
 10
-3E-005
 20
-7.23157
 30
0
 70
     0
  0
VERTEX
  8
3
 62
    11
 10
-3E-005
 20
-7.27847
 30
0
 70
     0
  0
VERTEX
  8
3
 62
    11
 10
-3E-005
 20
-7.33719
 30
0
 70
     0
  0
VERTEX
  8
3
 62
    11
 10
-3E-005
 20
-7.40771
 30
0
 70
     0
  0
VERTEX
  8
3
 62
    11
 10
-3E-005
 20
-7.49005
 30
0
 70
     0
  0
VERTEX
  8
3
 62
    11
 10
-3E-005
 20
-7.58419
 30
0
 70
     0
  0
VERTEX
  8
3
 62
    11
 10
-3E-005
 20
-7.69015
 30
0
 70
     0
  0
VERTEX
  8
3
 62
    11
 10
-3E-005
 20
-7.80791
 30
0
 70
     0
  0
VERTEX
  8
3
 62
    11
 10
-3E-005
 20
-7.93749
 30
0
 70
     0
  0
VERTEX
  8
3
 62
    11
 10
-3E-005
 20
-8.07887
 30
0
 70
     0
  0
VERTEX
  8
3
 62
    11
 10
-3E-005
 20
-8.23207
 30
0
 70
     0
  0
VERTEX
  8
3
 62
    11
 10
-3E-005
 20
-8.39707
 30
0
 70
     0
  0
VERTEX
  8
3
 62
    11
 10
-3E-005
 20
-8.57389
 30
0
 70
     0
  0
VERTEX
  8
3
 62
    11
 10
-3E-005
 20
-8.76251
 30
0
 70
     0
  0
VERTEX
  8
3
 62
    11
 10
-3E-005
 20
-8.96295
 30
0
 70
     0
  0
VERTEX
  8
3
 62
    11
 10
-3E-005
 20
-9.17519
 30
0
 70
     0
  0
VERTEX
  8
3
 62
    11
 10
-3E-005
 20
-9.39925
 30
0
 70
     0
  0
VERTEX
  8
3
 62
    11
 10
-3E-005
 20
-9.63511
 30
0
 70
     0
  0
VERTEX
  8
3
 62
    11
 10
-3E-005
 20
-9.88279
 30
0
 70
     0
  0
VERTEX
  8
3
 62
    11
 10
-3E-005
 20
-10.1423
 30
0
 70
     0
  0
VERTEX
  8
3
 62
    11
 10
-3E-005
 20
-10.4136
 30
0
 70
     0
  0
SEQEND
  0
POLYLINE
  8
3
 62
    11
 66
     1
 10
0
 20
0
 30
0
 70
     0
  0
VERTEX
  8
3
 62
    11
 10
-6.5
 20
-6.20157
 30
0
 70
     0
  0
VERTEX
  8
3
 62
    11
 10
-6.5
 20
-6.24443
 30
0
 70
     0
  0
VERTEX
  8
3
 62
    11
 10
-6.5
 20
-6.30415
 30
0
 70
     0
  0
VERTEX
  8
3
 62
    11
 10
-6.5
 20
-6.38077
 30
0
 70
     0
  0
VERTEX
  8
3
 62
    11
 10
-6.5
 20
-6.4743
 30
0
 70
     0
  0
VERTEX
  8
3
 62
    11
 10
-6.5
 20
-6.58476
 30
0
 70
     0
  0
VERTEX
  8
3
 62
    11
 10
-6.5
 20
-6.71218
 30
0
 70
     0
  0
VERTEX
  8
3
 62
    11
 10
-6.5
 20
-6.85655
 30
0
 70
     0
  0
VERTEX
  8
3
 62
    11
 10
-6.5
 20
-7.0179
 30
0
 70
     0
  0
VERTEX
  8
3
 62
    11
 10
-6.5
 20
-7.19623
 30
0
 70
     0
  0
VERTEX
  8
3
 62
    11
 10
-6.5
 20
-7.39155
 30
0
 70
     0
  0
VERTEX
  8
3
 62
    11
 10
-6.5
 20
-7.60385
 30
0
 70
     0
  0
VERTEX
  8
3
 62
    11
 10
-6.5
 20
-7.83314
 30
0
 70
     0
  0
VERTEX
  8
3
 62
    11
 10
-6.5
 20
-8.07941
 30
0
 70
     0
  0
VERTEX
  8
3
 62
    11
 10
-6.5
 20
-8.34266
 30
0
 70
     0
  0
VERTEX
  8
3
 62
    11
 10
-6.5
 20
-8.62287
 30
0
 70
     0
  0
VERTEX
  8
3
 62
    11
 10
-6.5
 20
-8.92004
 30
0
 70
     0
  0
VERTEX
  8
3
 62
    11
 10
-6.5
 20
-9.23414
 30
0
 70
     0
  0
VERTEX
  8
3
 62
    11
 10
-6.5
 20
-9.56517
 30
0
 70
     0
  0
VERTEX
  8
3
 62
    11
 10
-6.5
 20
-9.91309
 30
0
 70
     0
  0
VERTEX
  8
3
 62
    11
 10
-6.5
 20
-10.2779
 30
0
 70
     0
  0
SEQEND
  0
POLYLINE
  8
3
 62
    11
 66
     1
 10
0
 20
0
 30
0
 70
     0
  0
VERTEX
  8
3
 62
    11
 10
-13
 20
-5.43836
 30
0
 70
     0
  0
VERTEX
  8
3
 62
    11
 10
-13
 20
-5.47287
 30
0
 70
     0
  0
VERTEX
  8
3
 62
    11
 10
-13
 20
-5.52858
 30
0
 70
     0
  0
VERTEX
  8
3
 62
    11
 10
-13
 20
-5.54404
 30
0
 70
     0
  0
VERTEX
  8
3
 62
    11
 10
-13
 20
-5.60606
 30
0
 70
     0
  0
VERTEX
  8
3
 62
    11
 10
-13
 20
-5.70488
 30
0
 70
     0
  0
VERTEX
  8
3
 62
    11
 10
-13
 20
-5.82493
 30
0
 70
     0
  0
VERTEX
  8
3
 62
    11
 10
-13
 20
-5.96623
 30
0
 70
     0
  0
VERTEX
  8
3
 62
    11
 10
-13
 20
-6.12879
 30
0
 70
     0
  0
VERTEX
  8
3
 62
    11
 10
-13
 20
-6.31263
 30
0
 70
     0
  0
VERTEX
  8
3
 62
    11
 10
-13
 20
-6.51776
 30
0
 70
     0
  0
VERTEX
  8
3
 62
    11
 10
-13
 20
-6.74419
 30
0
 70
     0
  0
VERTEX
  8
3
 62
    11
 10
-13
 20
-6.99192
 30
0
 70
     0
  0
VERTEX
  8
3
 62
    11
 10
-13
 20
-7.26096
 30
0
 70
     0
  0
VERTEX
  8
3
 62
    11
 10
-13
 20
-7.55132
 30
0
 70
     0
  0
VERTEX
  8
3
 62
    11
 10
-13
 20
-7.86298
 30
0
 70
     0
  0
VERTEX
  8
3
 62
    11
 10
-13
 20
-8.19594
 30
0
 70
     0
  0
VERTEX
  8
3
 62
    11
 10
-13
 20
-8.55021
 30
0
 70
     0
  0
VERTEX
  8
3
 62
    11
 10
-13
 20
-8.92577
 30
0
 70
     0
  0
VERTEX
  8
3
 62
    11
 10
-13
 20
-9.3226
 30
0
 70
     0
  0
VERTEX
  8
3
 62
    11
 10
-13
 20
-9.7407
 30
0
 70
     0
  0
VERTEX
  8
3
 62
    11
 10
-13
 20
-10.18
 30
0
 70
     0
  0
SEQEND
  0
POLYLINE
  8
3
 62
    11
 66
     1
 10
0
 20
0
 30
0
 70
     0
  0
VERTEX
  8
3
 62
    11
 10
-19.5
 20
-4.97591
 30
0
 70
     0
  0
VERTEX
  8
3
 62
    11
 10
-19.5
 20
-4.99987
 30
0
 70
     0
  0
VERTEX
  8
3
 62
    11
 10
-19.5
 20
-5.04832
 30
0
 70
     0
  0
VERTEX
  8
3
 62
    11
 10
-19.5
 20
-5.12126
 30
0
 70
     0
  0
VERTEX
  8
3
 62
    11
 10
-19.5
 20
-5.21874
 30
0
 70
     0
  0
VERTEX
  8
3
 62
    11
 10
-19.5
 20
-5.34078
 30
0
 70
     0
  0
VERTEX
  8
3
 62
    11
 10
-19.5
 20
-5.48738
 30
0
 70
     0
  0
VERTEX
  8
3
 62
    11
 10
-19.5
 20
-5.61459
 30
0
 70
     0
  0
VERTEX
  8
3
 62
    11
 10
-19.5
 20
-5.65872
 30
0
 70
     0
  0
VERTEX
  8
3
 62
    11
 10
-19.5
 20
-5.85502
 30
0
 70
     0
  0
VERTEX
  8
3
 62
    11
 10
-19.5
 20
-6.07588
 30
0
 70
     0
  0
VERTEX
  8
3
 62
    11
 10
-19.5
 20
-6.3213
 30
0
 70
     0
  0
VERTEX
  8
3
 62
    11
 10
-19.5
 20
-6.5913
 30
0
 70
     0
  0
VERTEX
  8
3
 62
    11
 10
-19.5
 20
-6.88588
 30
0
 70
     0
  0
VERTEX
  8
3
 62
    11
 10
-19.5
 20
-7.20505
 30
0
 70
     0
  0
VERTEX
  8
3
 62
    11
 10
-19.5
 20
-7.54881
 30
0
 70
     0
  0
VERTEX
  8
3
 62
    11
 10
-19.5
 20
-7.91716
 30
0
 70
     0
  0
VERTEX
  8
3
 62
    11
 10
-19.5
 20
-8.31012
 30
0
 70
     0
  0
VERTEX
  8
3
 62
    11
 10
-19.5
 20
-8.72768
 30
0
 70
     0
  0
VERTEX
  8
3
 62
    11
 10
-19.5
 20
-9.16984
 30
0
 70
     0
  0
VERTEX
  8
3
 62
    11
 10
-19.5
 20
-9.63661
 30
0
 70
     0
  0
VERTEX
  8
3
 62
    11
 10
-19.5
 20
-10.128
 30
0
 70
     0
  0
SEQEND
  0
POLYLINE
  8
3
 62
    11
 66
     1
 10
0
 20
0
 30
0
 70
     0
  0
VERTEX
  8
3
 62
    11
 10
-26
 20
-4.83076
 30
0
 70
     0
  0
VERTEX
  8
3
 62
    11
 10
-26
 20
-4.84306
 30
0
 70
     0
  0
VERTEX
  8
3
 62
    11
 10
-26
 20
-4.88185
 30
0
 70
     0
  0
VERTEX
  8
3
 62
    11
 10
-26
 20
-4.94713
 30
0
 70
     0
  0
VERTEX
  8
3
 62
    11
 10
-26
 20
-5.03892
 30
0
 70
     0
  0
VERTEX
  8
3
 62
    11
 10
-26
 20
-5.15723
 30
0
 70
     0
  0
VERTEX
  8
3
 62
    11
 10
-26
 20
-5.30208
 30
0
 70
     0
  0
VERTEX
  8
3
 62
    11
 10
-26
 20
-5.47348
 30
0
 70
     0
  0
VERTEX
  8
3
 62
    11
 10
-26
 20
-5.67143
 30
0
 70
     0
  0
VERTEX
  8
3
 62
    11
 10
-26
 20
-5.89595
 30
0
 70
     0
  0
VERTEX
  8
3
 62
    11
 10
-26
 20
-6.14705
 30
0
 70
     0
  0
VERTEX
  8
3
 62
    11
 10
-26
 20
-6.42474
 30
0
 70
     0
  0
VERTEX
  8
3
 62
    11
 10
-26
 20
-6.72903
 30
0
 70
     0
  0
VERTEX
  8
3
 62
    11
 10
-26
 20
-7.05994
 30
0
 70
     0
  0
VERTEX
  8
3
 62
    11
 10
-26
 20
-7.39541
 30
0
 70
     0
  0
VERTEX
  8
3
 62
    11
 10
-26
 20
-7.41749
 30
0
 70
     0
  0
VERTEX
  8
3
 62
    11
 10
-26
 20
-7.80197
 30
0
 70
     0
  0
VERTEX
  8
3
 62
    11
 10
-26
 20
-8.21301
 30
0
 70
     0
  0
VERTEX
  8
3
 62
    11
 10
-26
 20
-8.65062
 30
0
 70
     0
  0
VERTEX
  8
3
 62
    11
 10
-26
 20
-9.11479
 30
0
 70
     0
  0
VERTEX
  8
3
 62
    11
 10
-26
 20
-9.60553
 30
0
 70
     0
  0
VERTEX
  8
3
 62
    11
 10
-26
 20
-10.1228
 30
0
 70
     0
  0
SEQEND
  0
POLYLINE
  8
3
 62
    11
 66
     1
 10
0
 20
0
 30
0
 70
     0
  0
VERTEX
  8
3
 62
    11
 10
-32.5
 20
-5.00846
 30
0
 70
     0
  0
VERTEX
  8
3
 62
    11
 10
-32.5
 20
-5.01005
 30
0
 70
     0
  0
VERTEX
  8
3
 62
    11
 10
-32.5
 20
-5.03862
 30
0
 70
     0
  0
VERTEX
  8
3
 62
    11
 10
-32.5
 20
-5.09418
 30
0
 70
     0
  0
VERTEX
  8
3
 62
    11
 10
-32.5
 20
-5.17672
 30
0
 70
     0
  0
VERTEX
  8
3
 62
    11
 10
-32.5
 20
-5.28625
 30
0
 70
     0
  0
VERTEX
  8
3
 62
    11
 10
-32.5
 20
-5.42276
 30
0
 70
     0
  0
VERTEX
  8
3
 62
    11
 10
-32.5
 20
-5.58625
 30
0
 70
     0
  0
VERTEX
  8
3
 62
    11
 10
-32.5
 20
-5.77673
 30
0
 70
     0
  0
VERTEX
  8
3
 62
    11
 10
-32.5
 20
-5.99419
 30
0
 70
     0
  0
VERTEX
  8
3
 62
    11
 10
-32.5
 20
-6.23863
 30
0
 70
     0
  0
VERTEX
  8
3
 62
    11
 10
-32.5
 20
-6.51006
 30
0
 70
     0
  0
VERTEX
  8
3
 62
    11
 10
-32.5
 20
-6.80847
 30
0
 70
     0
  0
VERTEX
  8
3
 62
    11
 10
-32.5
 20
-7.13388
 30
0
 70
     0
  0
VERTEX
  8
3
 62
    11
 10
-32.5
 20
-7.48627
 30
0
 70
     0
  0
VERTEX
  8
3
 62
    11
 10
-32.5
 20
-7.86565
 30
0
 70
     0
  0
VERTEX
  8
3
 62
    11
 10
-32.5
 20
-8.27203
 30
0
 70
     0
  0
VERTEX
  8
3
 62
    11
 10
-32.5
 20
-8.7054
 30
0
 70
     0
  0
VERTEX
  8
3
 62
    11
 10
-32.5
 20
-9.16577
 30
0
 70
     0
  0
VERTEX
  8
3
 62
    11
 10
-32.5
 20
-9.64967
 30
0
 70
     0
  0
VERTEX
  8
3
 62
    11
 10
-32.5
 20
-9.65313
 30
0
 70
     0
  0
VERTEX
  8
3
 62
    11
 10
-32.5
 20
-10.1676
 30
0
 70
     0
  0
SEQEND
  0
POLYLINE
  8
3
 62
    11
 66
     1
 10
0
 20
0
 30
0
 70
     0
  0
VERTEX
  8
3
 62
    11
 10
-39
 20
-5.50945
 30
0
 70
     0
  0
VERTEX
  8
3
 62
    11
 10
-39
 20
-5.50292
 30
0
 70
     0
  0
VERTEX
  8
3
 62
    11
 10
-39
 20
-5.52216
 30
0
 70
     0
  0
VERTEX
  8
3
 62
    11
 10
-39
 20
-5.56718
 30
0
 70
     0
  0
VERTEX
  8
3
 62
    11
 10
-39
 20
-5.63795
 30
0
 70
     0
  0
VERTEX
  8
3
 62
    11
 10
-39
 20
-5.73448
 30
0
 70
     0
  0
VERTEX
  8
3
 62
    11
 10
-39
 20
-5.85674
 30
0
 70
     0
  0
VERTEX
  8
3
 62
    11
 10
-39
 20
-6.00473
 30
0
 70
     0
  0
VERTEX
  8
3
 62
    11
 10
-39
 20
-6.17844
 30
0
 70
     0
  0
VERTEX
  8
3
 62
    11
 10
-39
 20
-6.37784
 30
0
 70
     0
  0
VERTEX
  8
3
 62
    11
 10
-39
 20
-6.60292
 30
0
 70
     0
  0
VERTEX
  8
3
 62
    11
 10
-39
 20
-6.85367
 30
0
 70
     0
  0
VERTEX
  8
3
 62
    11
 10
-39
 20
-7.13007
 30
0
 70
     0
  0
VERTEX
  8
3
 62
    11
 10
-39
 20
-7.43208
 30
0
 70
     0
  0
VERTEX
  8
3
 62
    11
 10
-39
 20
-7.75971
 30
0
 70
     0
  0
VERTEX
  8
3
 62
    11
 10
-39
 20
-8.11291
 30
0
 70
     0
  0
VERTEX
  8
3
 62
    11
 10
-39
 20
-8.49166
 30
0
 70
     0
  0
VERTEX
  8
3
 62
    11
 10
-39
 20
-8.89594
 30
0
 70
     0
  0
VERTEX
  8
3
 62
    11
 10
-39
 20
-9.32573
 30
0
 70
     0
  0
VERTEX
  8
3
 62
    11
 10
-39
 20
-9.78099
 30
0
 70
     0
  0
VERTEX
  8
3
 62
    11
 10
-39
 20
-10.2617
 30
0
 70
     0
  0
SEQEND
  0
POLYLINE
  8
3
 62
    11
 66
     1
 10
0
 20
0
 30
0
 70
     0
  0
VERTEX
  8
3
 62
    11
 10
-45.5
 20
-6.3275
 30
0
 70
     0
  0
VERTEX
  8
3
 62
    11
 10
-45.5
 20
-6.31683
 30
0
 70
     0
  0
VERTEX
  8
3
 62
    11
 10
-45.5
 20
-6.32889
 30
0
 70
     0
  0
VERTEX
  8
3
 62
    11
 10
-45.5
 20
-6.36366
 30
0
 70
     0
  0
VERTEX
  8
3
 62
    11
 10
-45.5
 20
-6.42114
 30
0
 70
     0
  0
VERTEX
  8
3
 62
    11
 10
-45.5
 20
-6.50132
 30
0
 70
     0
  0
VERTEX
  8
3
 62
    11
 10
-45.5
 20
-6.60418
 30
0
 70
     0
  0
VERTEX
  8
3
 62
    11
 10
-45.5
 20
-6.72969
 30
0
 70
     0
  0
VERTEX
  8
3
 62
    11
 10
-45.5
 20
-6.87783
 30
0
 70
     0
  0
VERTEX
  8
3
 62
    11
 10
-45.5
 20
-7.04858
 30
0
 70
     0
  0
VERTEX
  8
3
 62
    11
 10
-45.5
 20
-7.24189
 30
0
 70
     0
  0
VERTEX
  8
3
 62
    11
 10
-45.5
 20
-7.45774
 30
0
 70
     0
  0
VERTEX
  8
3
 62
    11
 10
-45.5
 20
-7.69607
 30
0
 70
     0
  0
VERTEX
  8
3
 62
    11
 10
-45.5
 20
-7.95684
 30
0
 70
     0
  0
VERTEX
  8
3
 62
    11
 10
-45.5
 20
-8.24
 30
0
 70
     0
  0
VERTEX
  8
3
 62
    11
 10
-45.5
 20
-8.5455
 30
0
 70
     0
  0
VERTEX
  8
3
 62
    11
 10
-45.5
 20
-8.87327
 30
0
 70
     0
  0
VERTEX
  8
3
 62
    11
 10
-45.5
 20
-9.22325
 30
0
 70
     0
  0
VERTEX
  8
3
 62
    11
 10
-45.5
 20
-9.59538
 30
0
 70
     0
  0
VERTEX
  8
3
 62
    11
 10
-45.5
 20
-9.98958
 30
0
 70
     0
  0
VERTEX
  8
3
 62
    11
 10
-45.5
 20
-10.4058
 30
0
 70
     0
  0
SEQEND
  0
POLYLINE
  8
3
 62
    11
 66
     1
 10
0
 20
0
 30
0
 70
     0
  0
VERTEX
  8
3
 62
    11
 10
-52
 20
-7.45426
 30
0
 70
     0
  0
VERTEX
  8
3
 62
    11
 10
-52
 20
-7.44356
 30
0
 70
     0
  0
VERTEX
  8
3
 62
    11
 10
-52
 20
-7.45064
 30
0
 70
     0
  0
VERTEX
  8
3
 62
    11
 10
-52
 20
-7.47551
 30
0
 70
     0
  0
VERTEX
  8
3
 62
    11
 10
-52
 20
-7.51817
 30
0
 70
     0
  0
VERTEX
  8
3
 62
    11
 10
-52
 20
-7.5786
 30
0
 70
     0
  0
VERTEX
  8
3
 62
    11
 10
-52
 20
-7.65679
 30
0
 70
     0
  0
VERTEX
  8
3
 62
    11
 10
-52
 20
-7.75271
 30
0
 70
     0
  0
VERTEX
  8
3
 62
    11
 10
-52
 20
-7.86634
 30
0
 70
     0
  0
VERTEX
  8
3
 62
    11
 10
-52
 20
-7.99762
 30
0
 70
     0
  0
VERTEX
  8
3
 62
    11
 10
-52
 20
-8.14653
 30
0
 70
     0
  0
VERTEX
  8
3
 62
    11
 10
-52
 20
-8.31301
 30
0
 70
     0
  0
VERTEX
  8
3
 62
    11
 10
-52
 20
-8.49701
 30
0
 70
     0
  0
VERTEX
  8
3
 62
    11
 10
-52
 20
-8.69846
 30
0
 70
     0
  0
VERTEX
  8
3
 62
    11
 10
-52
 20
-8.9173
 30
0
 70
     0
  0
VERTEX
  8
3
 62
    11
 10
-52
 20
-9.15344
 30
0
 70
     0
  0
VERTEX
  8
3
 62
    11
 10
-52
 20
-9.40681
 30
0
 70
     0
  0
VERTEX
  8
3
 62
    11
 10
-52
 20
-9.67732
 30
0
 70
     0
  0
VERTEX
  8
3
 62
    11
 10
-52
 20
-9.96488
 30
0
 70
     0
  0
VERTEX
  8
3
 62
    11
 10
-52
 20
-10.2694
 30
0
 70
     0
  0
VERTEX
  8
3
 62
    11
 10
-52
 20
-10.5907
 30
0
 70
     0
  0
SEQEND
  0
POLYLINE
  8
3
 62
    11
 66
     1
 10
0
 20
0
 30
0
 70
     0
  0
VERTEX
  8
3
 62
    11
 10
-58.5
 20
-8.86966
 30
0
 70
     0
  0
VERTEX
  8
3
 62
    11
 10
-58.5
 20
-8.86159
 30
0
 70
     0
  0
VERTEX
  8
3
 62
    11
 10
-58.5
 20
-8.86458
 30
0
 70
     0
  0
VERTEX
  8
3
 62
    11
 10
-58.5
 20
-8.87864
 30
0
 70
     0
  0
VERTEX
  8
3
 62
    11
 10
-58.5
 20
-8.90375
 30
0
 70
     0
  0
VERTEX
  8
3
 62
    11
 10
-58.5
 20
-8.93992
 30
0
 70
     0
  0
VERTEX
  8
3
 62
    11
 10
-58.5
 20
-8.98712
 30
0
 70
     0
  0
VERTEX
  8
3
 62
    11
 10
-58.5
 20
-9.04536
 30
0
 70
     0
  0
VERTEX
  8
3
 62
    11
 10
-58.5
 20
-9.11459
 30
0
 70
     0
  0
VERTEX
  8
3
 62
    11
 10
-58.5
 20
-9.1948
 30
0
 70
     0
  0
VERTEX
  8
3
 62
    11
 10
-58.5
 20
-9.28595
 30
0
 70
     0
  0
VERTEX
  8
3
 62
    11
 10
-58.5
 20
-9.38799
 30
0
 70
     0
  0
VERTEX
  8
3
 62
    11
 10
-58.5
 20
-9.50088
 30
0
 70
     0
  0
VERTEX
  8
3
 62
    11
 10
-58.5
 20
-9.62457
 30
0
 70
     0
  0
VERTEX
  8
3
 62
    11
 10
-58.5
 20
-9.75901
 30
0
 70
     0
  0
VERTEX
  8
3
 62
    11
 10
-58.5
 20
-9.90412
 30
0
 70
     0
  0
VERTEX
  8
3
 62
    11
 10
-58.5
 20
-10.0598
 30
0
 70
     0
  0
VERTEX
  8
3
 62
    11
 10
-58.5
 20
-10.2261
 30
0
 70
     0
  0
VERTEX
  8
3
 62
    11
 10
-58.5
 20
-10.4028
 30
0
 70
     0
  0
VERTEX
  8
3
 62
    11
 10
-58.5
 20
-10.5899
 30
0
 70
     0
  0
VERTEX
  8
3
 62
    11
 10
-58.5
 20
-10.7873
 30
0
 70
     0
  0
SEQEND
  0
POLYLINE
  8
3
 62
    11
 66
     1
 10
0
 20
0
 30
0
 70
     0
  0
VERTEX
  8
3
 62
    11
 10
-65
 20
-10.5406
 30
0
 70
     0
  0
VERTEX
  8
3
 62
    11
 10
-65
 20
-10.5346
 30
0
 70
     0
  0
VERTEX
  8
3
 62
    11
 10
-65
 20
-10.5313
 30
0
 70
     0
  0
VERTEX
  8
3
 62
    11
 10
-65
 20
-10.5306
 30
0
 70
     0
  0
VERTEX
  8
3
 62
    11
 10
-65
 20
-10.5324
 30
0
 70
     0
  0
VERTEX
  8
3
 62
    11
 10
-65
 20
-10.5369
 30
0
 70
     0
  0
VERTEX
  8
3
 62
    11
 10
-65
 20
-10.5439
 30
0
 70
     0
  0
VERTEX
  8
3
 62
    11
 10
-65
 20
-10.5535
 30
0
 70
     0
  0
VERTEX
  8
3
 62
    11
 10
-65
 20
-10.5657
 30
0
 70
     0
  0
VERTEX
  8
3
 62
    11
 10
-65
 20
-10.5805
 30
0
 70
     0
  0
VERTEX
  8
3
 62
    11
 10
-65
 20
-10.5978
 30
0
 70
     0
  0
VERTEX
  8
3
 62
    11
 10
-65
 20
-10.6178
 30
0
 70
     0
  0
VERTEX
  8
3
 62
    11
 10
-65
 20
-10.6403
 30
0
 70
     0
  0
VERTEX
  8
3
 62
    11
 10
-65
 20
-10.6654
 30
0
 70
     0
  0
VERTEX
  8
3
 62
    11
 10
-65
 20
-10.6931
 30
0
 70
     0
  0
VERTEX
  8
3
 62
    11
 10
-65
 20
-10.7234
 30
0
 70
     0
  0
VERTEX
  8
3
 62
    11
 10
-65
 20
-10.7562
 30
0
 70
     0
  0
VERTEX
  8
3
 62
    11
 10
-65
 20
-10.7917
 30
0
 70
     0
  0
VERTEX
  8
3
 62
    11
 10
-65
 20
-10.8297
 30
0
 70
     0
  0
VERTEX
  8
3
 62
    11
 10
-65
 20
-10.8704
 30
0
 70
     0
  0
VERTEX
  8
3
 62
    11
 10
-65
 20
-10.9136
 30
0
 70
     0
  0
SEQEND
  0
POLYLINE
  8
3
 62
    11
 66
     1
 10
0
 20
0
 30
0
 70
     0
  0
VERTEX
  8
3
 62
    11
 10
-3E-005
 20
-10.4136
 30
0
 70
     0
  0
VERTEX
  8
3
 62
    11
 10
-3E-005
 20
-10.465
 30
0
 70
     0
  0
VERTEX
  8
3
 62
    11
 10
-3E-005
 20
-10.5164
 30
0
 70
     0
  0
VERTEX
  8
3
 62
    11
 10
-3E-005
 20
-10.5678
 30
0
 70
     0
  0
VERTEX
  8
3
 62
    11
 10
-3E-005
 20
-10.6192
 30
0
 70
     0
  0
VERTEX
  8
3
 62
    11
 10
-3E-005
 20
-10.6706
 30
0
 70
     0
  0
VERTEX
  8
3
 62
    11
 10
-3E-005
 20
-10.722
 30
0
 70
     0
  0
VERTEX
  8
3
 62
    11
 10
-3E-005
 20
-10.7734
 30
0
 70
     0
  0
VERTEX
  8
3
 62
    11
 10
-3E-005
 20
-10.8248
 30
0
 70
     0
  0
VERTEX
  8
3
 62
    11
 10
-3E-005
 20
-10.8762
 30
0
 70
     0
  0
VERTEX
  8
3
 62
    11
 10
-3E-005
 20
-10.9276
 30
0
 70
     0
  0
SEQEND
  0
POLYLINE
  8
3
 62
    11
 66
     1
 10
0
 20
0
 30
0
 70
     0
  0
VERTEX
  8
3
 62
    11
 10
-6.5
 20
-10.2777
 30
0
 70
     0
  0
VERTEX
  8
3
 62
    11
 10
-6.5
 20
-10.3427
 30
0
 70
     0
  0
VERTEX
  8
3
 62
    11
 10
-6.5
 20
-10.4077
 30
0
 70
     0
  0
VERTEX
  8
3
 62
    11
 10
-6.5
 20
-10.4727
 30
0
 70
     0
  0
VERTEX
  8
3
 62
    11
 10
-6.5
 20
-10.5377
 30
0
 70
     0
  0
VERTEX
  8
3
 62
    11
 10
-6.5
 20
-10.6026
 30
0
 70
     0
  0
VERTEX
  8
3
 62
    11
 10
-6.5
 20
-10.6676
 30
0
 70
     0
  0
VERTEX
  8
3
 62
    11
 10
-6.5
 20
-10.7326
 30
0
 70
     0
  0
VERTEX
  8
3
 62
    11
 10
-6.5
 20
-10.7976
 30
0
 70
     0
  0
VERTEX
  8
3
 62
    11
 10
-6.5
 20
-10.8626
 30
0
 70
     0
  0
VERTEX
  8
3
 62
    11
 10
-6.5
 20
-10.9276
 30
0
 70
     0
  0
SEQEND
  0
POLYLINE
  8
3
 62
    11
 66
     1
 10
0
 20
0
 30
0
 70
     0
  0
VERTEX
  8
3
 62
    11
 10
-13
 20
-10.1798
 30
0
 70
     0
  0
VERTEX
  8
3
 62
    11
 10
-13
 20
-10.2546
 30
0
 70
     0
  0
VERTEX
  8
3
 62
    11
 10
-13
 20
-10.3294
 30
0
 70
     0
  0
VERTEX
  8
3
 62
    11
 10
-13
 20
-10.4041
 30
0
 70
     0
  0
VERTEX
  8
3
 62
    11
 10
-13
 20
-10.4789
 30
0
 70
     0
  0
VERTEX
  8
3
 62
    11
 10
-13
 20
-10.5537
 30
0
 70
     0
  0
VERTEX
  8
3
 62
    11
 10
-13
 20
-10.6285
 30
0
 70
     0
  0
VERTEX
  8
3
 62
    11
 10
-13
 20
-10.7032
 30
0
 70
     0
  0
VERTEX
  8
3
 62
    11
 10
-13
 20
-10.778
 30
0
 70
     0
  0
VERTEX
  8
3
 62
    11
 10
-13
 20
-10.8528
 30
0
 70
     0
  0
VERTEX
  8
3
 62
    11
 10
-13
 20
-10.9276
 30
0
 70
     0
  0
SEQEND
  0
POLYLINE
  8
3
 62
    11
 66
     1
 10
0
 20
0
 30
0
 70
     0
  0
VERTEX
  8
3
 62
    11
 10
-19.5
 20
-10.1278
 30
0
 70
     0
  0
VERTEX
  8
3
 62
    11
 10
-19.5
 20
-10.2077
 30
0
 70
     0
  0
VERTEX
  8
3
 62
    11
 10
-19.5
 20
-10.2877
 30
0
 70
     0
  0
VERTEX
  8
3
 62
    11
 10
-19.5
 20
-10.3677
 30
0
 70
     0
  0
VERTEX
  8
3
 62
    11
 10
-19.5
 20
-10.4477
 30
0
 70
     0
  0
VERTEX
  8
3
 62
    11
 10
-19.5
 20
-10.5277
 30
0
 70
     0
  0
VERTEX
  8
3
 62
    11
 10
-19.5
 20
-10.6076
 30
0
 70
     0
  0
VERTEX
  8
3
 62
    11
 10
-19.5
 20
-10.6876
 30
0
 70
     0
  0
VERTEX
  8
3
 62
    11
 10
-19.5
 20
-10.7676
 30
0
 70
     0
  0
VERTEX
  8
3
 62
    11
 10
-19.5
 20
-10.8476
 30
0
 70
     0
  0
VERTEX
  8
3
 62
    11
 10
-19.5
 20
-10.9276
 30
0
 70
     0
  0
SEQEND
  0
POLYLINE
  8
3
 62
    11
 66
     1
 10
0
 20
0
 30
0
 70
     0
  0
VERTEX
  8
3
 62
    11
 10
-26
 20
-10.1227
 30
0
 70
     0
  0
VERTEX
  8
3
 62
    11
 10
-26
 20
-10.2032
 30
0
 70
     0
  0
VERTEX
  8
3
 62
    11
 10
-26
 20
-10.2837
 30
0
 70
     0
  0
VERTEX
  8
3
 62
    11
 10
-26
 20
-10.3642
 30
0
 70
     0
  0
VERTEX
  8
3
 62
    11
 10
-26
 20
-10.4446
 30
0
 70
     0
  0
VERTEX
  8
3
 62
    11
 10
-26
 20
-10.5251
 30
0
 70
     0
  0
VERTEX
  8
3
 62
    11
 10
-26
 20
-10.6056
 30
0
 70
     0
  0
VERTEX
  8
3
 62
    11
 10
-26
 20
-10.6861
 30
0
 70
     0
  0
VERTEX
  8
3
 62
    11
 10
-26
 20
-10.7666
 30
0
 70
     0
  0
VERTEX
  8
3
 62
    11
 10
-26
 20
-10.8471
 30
0
 70
     0
  0
VERTEX
  8
3
 62
    11
 10
-26
 20
-10.9276
 30
0
 70
     0
  0
SEQEND
  0
POLYLINE
  8
3
 62
    11
 66
     1
 10
0
 20
0
 30
0
 70
     0
  0
VERTEX
  8
3
 62
    11
 10
-32.5
 20
-10.1676
 30
0
 70
     0
  0
VERTEX
  8
3
 62
    11
 10
-32.5
 20
-10.2436
 30
0
 70
     0
  0
VERTEX
  8
3
 62
    11
 10
-32.5
 20
-10.3196
 30
0
 70
     0
  0
VERTEX
  8
3
 62
    11
 10
-32.5
 20
-10.3956
 30
0
 70
     0
  0
VERTEX
  8
3
 62
    11
 10
-32.5
 20
-10.4716
 30
0
 70
     0
  0
VERTEX
  8
3
 62
    11
 10
-32.5
 20
-10.5476
 30
0
 70
     0
  0
VERTEX
  8
3
 62
    11
 10
-32.5
 20
-10.6236
 30
0
 70
     0
  0
VERTEX
  8
3
 62
    11
 10
-32.5
 20
-10.6996
 30
0
 70
     0
  0
VERTEX
  8
3
 62
    11
 10
-32.5
 20
-10.7756
 30
0
 70
     0
  0
VERTEX
  8
3
 62
    11
 10
-32.5
 20
-10.8516
 30
0
 70
     0
  0
VERTEX
  8
3
 62
    11
 10
-32.5
 20
-10.9276
 30
0
 70
     0
  0
SEQEND
  0
POLYLINE
  8
3
 62
    11
 66
     1
 10
0
 20
0
 30
0
 70
     0
  0
VERTEX
  8
3
 62
    11
 10
-39
 20
-10.2616
 30
0
 70
     0
  0
VERTEX
  8
3
 62
    11
 10
-39
 20
-10.3282
 30
0
 70
     0
  0
VERTEX
  8
3
 62
    11
 10
-39
 20
-10.3948
 30
0
 70
     0
  0
VERTEX
  8
3
 62
    11
 10
-39
 20
-10.4614
 30
0
 70
     0
  0
VERTEX
  8
3
 62
    11
 10
-39
 20
-10.528
 30
0
 70
     0
  0
VERTEX
  8
3
 62
    11
 10
-39
 20
-10.5946
 30
0
 70
     0
  0
VERTEX
  8
3
 62
    11
 10
-39
 20
-10.6612
 30
0
 70
     0
  0
VERTEX
  8
3
 62
    11
 10
-39
 20
-10.7278
 30
0
 70
     0
  0
VERTEX
  8
3
 62
    11
 10
-39
 20
-10.7944
 30
0
 70
     0
  0
VERTEX
  8
3
 62
    11
 10
-39
 20
-10.861
 30
0
 70
     0
  0
VERTEX
  8
3
 62
    11
 10
-39
 20
-10.9276
 30
0
 70
     0
  0
SEQEND
  0
POLYLINE
  8
3
 62
    11
 66
     1
 10
0
 20
0
 30
0
 70
     0
  0
VERTEX
  8
3
 62
    11
 10
-45.5
 20
-10.4057
 30
0
 70
     0
  0
VERTEX
  8
3
 62
    11
 10
-45.5
 20
-10.4579
 30
0
 70
     0
  0
VERTEX
  8
3
 62
    11
 10
-45.5
 20
-10.51
 30
0
 70
     0
  0
VERTEX
  8
3
 62
    11
 10
-45.5
 20
-10.5622
 30
0
 70
     0
  0
VERTEX
  8
3
 62
    11
 10
-45.5
 20
-10.6144
 30
0
 70
     0
  0
VERTEX
  8
3
 62
    11
 10
-45.5
 20
-10.6666
 30
0
 70
     0
  0
VERTEX
  8
3
 62
    11
 10
-45.5
 20
-10.7188
 30
0
 70
     0
  0
VERTEX
  8
3
 62
    11
 10
-45.5
 20
-10.771
 30
0
 70
     0
  0
VERTEX
  8
3
 62
    11
 10
-45.5
 20
-10.8232
 30
0
 70
     0
  0
VERTEX
  8
3
 62
    11
 10
-45.5
 20
-10.8754
 30
0
 70
     0
  0
VERTEX
  8
3
 62
    11
 10
-45.5
 20
-10.9276
 30
0
 70
     0
  0
SEQEND
  0
POLYLINE
  8
3
 62
    11
 66
     1
 10
0
 20
0
 30
0
 70
     0
  0
VERTEX
  8
3
 62
    11
 10
-52
 20
-10.5906
 30
0
 70
     0
  0
VERTEX
  8
3
 62
    11
 10
-52
 20
-10.6243
 30
0
 70
     0
  0
VERTEX
  8
3
 62
    11
 10
-52
 20
-10.658
 30
0
 70
     0
  0
VERTEX
  8
3
 62
    11
 10
-52
 20
-10.6917
 30
0
 70
     0
  0
VERTEX
  8
3
 62
    11
 10
-52
 20
-10.7254
 30
0
 70
     0
  0
VERTEX
  8
3
 62
    11
 10
-52
 20
-10.7591
 30
0
 70
     0
  0
VERTEX
  8
3
 62
    11
 10
-52
 20
-10.7928
 30
0
 70
     0
  0
VERTEX
  8
3
 62
    11
 10
-52
 20
-10.8265
 30
0
 70
     0
  0
VERTEX
  8
3
 62
    11
 10
-52
 20
-10.8602
 30
0
 70
     0
  0
VERTEX
  8
3
 62
    11
 10
-52
 20
-10.8939
 30
0
 70
     0
  0
VERTEX
  8
3
 62
    11
 10
-52
 20
-10.9276
 30
0
 70
     0
  0
SEQEND
  0
POLYLINE
  8
3
 62
    11
 66
     1
 10
0
 20
0
 30
0
 70
     0
  0
VERTEX
  8
3
 62
    11
 10
-58.5
 20
-10.7875
 30
0
 70
     0
  0
VERTEX
  8
3
 62
    11
 10
-58.5
 20
-10.8015
 30
0
 70
     0
  0
VERTEX
  8
3
 62
    11
 10
-58.5
 20
-10.8155
 30
0
 70
     0
  0
VERTEX
  8
3
 62
    11
 10
-58.5
 20
-10.8295
 30
0
 70
     0
  0
VERTEX
  8
3
 62
    11
 10
-58.5
 20
-10.8435
 30
0
 70
     0
  0
VERTEX
  8
3
 62
    11
 10
-58.5
 20
-10.8575
 30
0
 70
     0
  0
VERTEX
  8
3
 62
    11
 10
-58.5
 20
-10.8715
 30
0
 70
     0
  0
VERTEX
  8
3
 62
    11
 10
-58.5
 20
-10.8855
 30
0
 70
     0
  0
VERTEX
  8
3
 62
    11
 10
-58.5
 20
-10.8995
 30
0
 70
     0
  0
VERTEX
  8
3
 62
    11
 10
-58.5
 20
-10.9136
 30
0
 70
     0
  0
VERTEX
  8
3
 62
    11
 10
-58.5
 20
-10.9276
 30
0
 70
     0
  0
SEQEND
  0
POLYLINE
  8
3
 62
    11
 66
     1
 10
0
 20
0
 30
0
 70
     0
  0
VERTEX
  8
3
 62
    11
 10
-65
 20
-10.9136
 30
0
 70
     0
  0
VERTEX
  8
3
 62
    11
 10
-65
 20
-10.915
 30
0
 70
     0
  0
VERTEX
  8
3
 62
    11
 10
-65
 20
-10.9164
 30
0
 70
     0
  0
VERTEX
  8
3
 62
    11
 10
-65
 20
-10.9178
 30
0
 70
     0
  0
VERTEX
  8
3
 62
    11
 10
-65
 20
-10.9192
 30
0
 70
     0
  0
VERTEX
  8
3
 62
    11
 10
-65
 20
-10.9206
 30
0
 70
     0
  0
VERTEX
  8
3
 62
    11
 10
-65
 20
-10.922
 30
0
 70
     0
  0
VERTEX
  8
3
 62
    11
 10
-65
 20
-10.9234
 30
0
 70
     0
  0
VERTEX
  8
3
 62
    11
 10
-65
 20
-10.9248
 30
0
 70
     0
  0
VERTEX
  8
3
 62
    11
 10
-65
 20
-10.9262
 30
0
 70
     0
  0
VERTEX
  8
3
 62
    11
 10
-65
 20
-10.9276
 30
0
 70
     0
  0
SEQEND
  0
POLYLINE
  8
3
 62
     9
 66
     1
 10
0
 20
0
 30
0
 70
     0
  0
VERTEX
  8
3
 62
     9
 10
-62.6242
 20
-9.92757
 30
0
 70
     0
  0
VERTEX
  8
3
 62
     9
 10
-62.6503
 20
-9.92757
 30
0
 70
     0
  0
VERTEX
  8
3
 62
     9
 10
-62.6544
 20
-9.92757
 30
0
 70
     0
  0
VERTEX
  8
3
 62
     9
 10
-62.6362
 20
-9.92757
 30
0
 70
     0
  0
VERTEX
  8
3
 62
     9
 10
-62.5951
 20
-9.92757
 30
0
 70
     0
  0
VERTEX
  8
3
 62
     9
 10
-62.5292
 20
-9.92757
 30
0
 70
     0
  0
VERTEX
  8
3
 62
     9
 10
-62.436
 20
-9.92757
 30
0
 70
     0
  0
VERTEX
  8
3
 62
     9
 10
-62.3117
 20
-9.92757
 30
0
 70
     0
  0
VERTEX
  8
3
 62
     9
 10
-62.1512
 20
-9.92757
 30
0
 70
     0
  0
VERTEX
  8
3
 62
     9
 10
-61.9471
 20
-9.92757
 30
0
 70
     0
  0
VERTEX
  8
3
 62
     9
 10
-61.689
 20
-9.92757
 30
0
 70
     0
  0
VERTEX
  8
3
 62
     9
 10
-61.362
 20
-9.92757
 30
0
 70
     0
  0
VERTEX
  8
3
 62
     9
 10
-60.9442
 20
-9.92757
 30
0
 70
     0
  0
VERTEX
  8
3
 62
     9
 10
-60.4022
 20
-9.92757
 30
0
 70
     0
  0
VERTEX
  8
3
 62
     9
 10
-59.6826
 20
-9.92757
 30
0
 70
     0
  0
VERTEX
  8
3
 62
     9
 10
-58.6949
 20
-9.92757
 30
0
 70
     0
  0
VERTEX
  8
3
 62
     9
 10
-58.613
 20
-9.92757
 30
0
 70
     0
  0
VERTEX
  8
3
 62
     9
 10
-57.189
 20
-9.92757
 30
0
 70
     0
  0
VERTEX
  8
3
 62
     9
 10
-54.9766
 20
-9.92757
 30
0
 70
     0
  0
VERTEX
  8
3
 62
     9
 10
-52.1188
 20
-9.92757
 30
0
 70
     0
  0
VERTEX
  8
3
 62
     9
 10
-51.3467
 20
-9.92757
 30
0
 70
     0
  0
VERTEX
  8
3
 62
     9
 10
-45.5915
 20
-9.92757
 30
0
 70
     0
  0
VERTEX
  8
3
 62
     9
 10
-43.5737
 20
-9.92757
 30
0
 70
     0
  0
VERTEX
  8
3
 62
     9
 10
-39.0455
 20
-9.92757
 30
0
 70
     0
  0
VERTEX
  8
3
 62
     9
 10
-32.4902
 20
-9.92757
 30
0
 70
     0
  0
VERTEX
  8
3
 62
     9
 10
-25.935
 20
-9.92757
 30
0
 70
     0
  0
VERTEX
  8
3
 62
     9
 10
-19.3898
 20
-9.92757
 30
0
 70
     0
  0
VERTEX
  8
3
 62
     9
 10
-12.8668
 20
-9.92757
 30
0
 70
     0
  0
VERTEX
  8
3
 62
     9
 10
-6.3889
 20
-9.92757
 30
0
 70
     0
  0
VERTEX
  8
3
 62
     9
 10
-6.06387
 20
-9.92757
 30
0
 70
     0
  0
VERTEX
  8
3
 62
     9
 10
0
 20
-9.92757
 30
0
 70
     0
  0
SEQEND
  0
POLYLINE
  8
3
 62
     9
 66
     1
 10
0
 20
0
 30
0
 70
     0
  0
VERTEX
  8
3
 62
     9
 10
-58.7486
 20
-8.92757
 30
0
 70
     0
  0
VERTEX
  8
3
 62
     9
 10
-58.7798
 20
-8.92757
 30
0
 70
     0
  0
VERTEX
  8
3
 62
     9
 10
-58.7694
 20
-8.92757
 30
0
 70
     0
  0
VERTEX
  8
3
 62
     9
 10
-58.7165
 20
-8.92757
 30
0
 70
     0
  0
VERTEX
  8
3
 62
     9
 10
-58.6684
 20
-8.92757
 30
0
 70
     0
  0
VERTEX
  8
3
 62
     9
 10
-58.6108
 20
-8.92757
 30
0
 70
     0
  0
VERTEX
  8
3
 62
     9
 10
-58.4416
 20
-8.92757
 30
0
 70
     0
  0
VERTEX
  8
3
 62
     9
 10
-58.2114
 20
-8.92757
 30
0
 70
     0
  0
VERTEX
  8
3
 62
     9
 10
-57.9125
 20
-8.92757
 30
0
 70
     0
  0
VERTEX
  8
3
 62
     9
 10
-57.5339
 20
-8.92757
 30
0
 70
     0
  0
VERTEX
  8
3
 62
     9
 10
-57.0602
 20
-8.92757
 30
0
 70
     0
  0
VERTEX
  8
3
 62
     9
 10
-56.4706
 20
-8.92757
 30
0
 70
     0
  0
VERTEX
  8
3
 62
     9
 10
-55.7355
 20
-8.92757
 30
0
 70
     0
  0
VERTEX
  8
3
 62
     9
 10
-54.8122
 20
-8.92757
 30
0
 70
     0
  0
VERTEX
  8
3
 62
     9
 10
-53.6378
 20
-8.92757
 30
0
 70
     0
  0
VERTEX
  8
3
 62
     9
 10
-52.1875
 20
-8.92757
 30
0
 70
     0
  0
VERTEX
  8
3
 62
     9
 10
-52.0978
 20
-8.92757
 30
0
 70
     0
  0
VERTEX
  8
3
 62
     9
 10
-49.6038
 20
-8.92757
 30
0
 70
     0
  0
VERTEX
  8
3
 62
     9
 10
-46.2013
 20
-8.92757
 30
0
 70
     0
  0
VERTEX
  8
3
 62
     9
 10
-45.653
 20
-8.92757
 30
0
 70
     0
  0
VERTEX
  8
3
 62
     9
 10
-39.6645
 20
-8.92757
 30
0
 70
     0
  0
VERTEX
  8
3
 62
     9
 10
-39.0949
 20
-8.92757
 30
0
 70
     0
  0
VERTEX
  8
3
 62
     9
 10
-32.5262
 20
-8.92757
 30
0
 70
     0
  0
VERTEX
  8
3
 62
     9
 10
-25.9579
 20
-8.92757
 30
0
 70
     0
  0
VERTEX
  8
3
 62
     9
 10
-19.4013
 20
-8.92757
 30
0
 70
     0
  0
VERTEX
  8
3
 62
     9
 10
-12.9413
 20
-8.92757
 30
0
 70
     0
  0
VERTEX
  8
3
 62
     9
 10
-12.8704
 20
-8.92757
 30
0
 70
     0
  0
VERTEX
  8
3
 62
     9
 10
-6.38956
 20
-8.92757
 30
0
 70
     0
  0
VERTEX
  8
3
 62
     9
 10
-6.37325
 20
-8.92757
 30
0
 70
     0
  0
VERTEX
  8
3
 62
     9
 10
-2.90319
 20
-8.92757
 30
0
 70
     0
  0
VERTEX
  8
3
 62
     9
 10
-0.36938
 20
-8.92757
 30
0
 70
     0
  0
VERTEX
  8
3
 62
     9
 10
0
 20
-8.92757
 30
0
 70
     0
  0
SEQEND
  0
POLYLINE
  8
3
 62
     9
 66
     1
 10
0
 20
0
 30
0
 70
     0
  0
VERTEX
  8
3
 62
     9
 10
-54.2085
 20
-7.92757
 30
0
 70
     0
  0
VERTEX
  8
3
 62
     9
 10
-54.2539
 20
-7.92757
 30
0
 70
     0
  0
VERTEX
  8
3
 62
     9
 10
-54.2285
 20
-7.92757
 30
0
 70
     0
  0
VERTEX
  8
3
 62
     9
 10
-54.1313
 20
-7.92757
 30
0
 70
     0
  0
VERTEX
  8
3
 62
     9
 10
-53.9592
 20
-7.92757
 30
0
 70
     0
  0
VERTEX
  8
3
 62
     9
 10
-53.7068
 20
-7.92757
 30
0
 70
     0
  0
VERTEX
  8
3
 62
     9
 10
-53.366
 20
-7.92757
 30
0
 70
     0
  0
VERTEX
  8
3
 62
     9
 10
-52.925
 20
-7.92757
 30
0
 70
     0
  0
VERTEX
  8
3
 62
     9
 10
-52.368
 20
-7.92757
 30
0
 70
     0
  0
VERTEX
  8
3
 62
     9
 10
-52.2509
 20
-7.92757
 30
0
 70
     0
  0
VERTEX
  8
3
 62
     9
 10
-51.5259
 20
-7.92757
 30
0
 70
     0
  0
VERTEX
  8
3
 62
     9
 10
-50.4446
 20
-7.92757
 30
0
 70
     0
  0
VERTEX
  8
3
 62
     9
 10
-49.1023
 20
-7.92757
 30
0
 70
     0
  0
VERTEX
  8
3
 62
     9
 10
-47.4258
 20
-7.92757
 30
0
 70
     0
  0
VERTEX
  8
3
 62
     9
 10
-45.7138
 20
-7.92757
 30
0
 70
     0
  0
VERTEX
  8
3
 62
     9
 10
-45.1416
 20
-7.92757
 30
0
 70
     0
  0
VERTEX
  8
3
 62
     9
 10
-41.3149
 20
-7.92757
 30
0
 70
     0
  0
VERTEX
  8
3
 62
     9
 10
-39.1454
 20
-7.92757
 30
0
 70
     0
  0
VERTEX
  8
3
 62
     9
 10
-34.165
 20
-7.92757
 30
0
 70
     0
  0
VERTEX
  8
3
 62
     9
 10
-32.5643
 20
-7.92757
 30
0
 70
     0
  0
VERTEX
  8
3
 62
     9
 10
-25.9841
 20
-7.92757
 30
0
 70
     0
  0
VERTEX
  8
3
 62
     9
 10
-19.4177
 20
-7.92757
 30
0
 70
     0
  0
VERTEX
  8
3
 62
     9
 10
-19.2108
 20
-7.92757
 30
0
 70
     0
  0
VERTEX
  8
3
 62
     9
 10
-12.881
 20
-7.92757
 30
0
 70
     0
  0
VERTEX
  8
3
 62
     9
 10
-12.0894
 20
-7.92757
 30
0
 70
     0
  0
VERTEX
  8
3
 62
     9
 10
-8.35775
 20
-7.92757
 30
0
 70
     0
  0
VERTEX
  8
3
 62
     9
 10
-6.399
 20
-7.92757
 30
0
 70
     0
  0
VERTEX
  8
3
 62
     9
 10
-5.65174
 20
-7.92757
 30
0
 70
     0
  0
VERTEX
  8
3
 62
     9
 10
-3.83452
 20
-7.92757
 30
0
 70
     0
  0
VERTEX
  8
3
 62
     9
 10
-2.34733
 20
-7.92757
 30
0
 70
     0
  0
VERTEX
  8
3
 62
     9
 10
-1.11092
 20
-7.92757
 30
0
 70
     0
  0
VERTEX
  8
3
 62
     9
 10
-0.06992
 20
-7.92757
 30
0
 70
     0
  0
VERTEX
  8
3
 62
     9
 10
0
 20
-7.92757
 30
0
 70
     0
  0
SEQEND
  0
POLYLINE
  8
3
 62
     9
 66
     1
 10
0
 20
0
 30
0
 70
     0
  0
VERTEX
  8
3
 62
     9
 10
-48.9999
 20
-6.92757
 30
0
 70
     0
  0
VERTEX
  8
3
 62
     9
 10
-49.0614
 20
-6.92757
 30
0
 70
     0
  0
VERTEX
  8
3
 62
     9
 10
-49.0084
 20
-6.92757
 30
0
 70
     0
  0
VERTEX
  8
3
 62
     9
 10
-48.8385
 20
-6.92757
 30
0
 70
     0
  0
VERTEX
  8
3
 62
     9
 10
-48.5463
 20
-6.92757
 30
0
 70
     0
  0
VERTEX
  8
3
 62
     9
 10
-48.1228
 20
-6.92757
 30
0
 70
     0
  0
VERTEX
  8
3
 62
     9
 10
-47.5547
 20
-6.92757
 30
0
 70
     0
  0
VERTEX
  8
3
 62
     9
 10
-46.8232
 20
-6.92757
 30
0
 70
     0
  0
VERTEX
  8
3
 62
     9
 10
-45.9027
 20
-6.92757
 30
0
 70
     0
  0
VERTEX
  8
3
 62
     9
 10
-45.7735
 20
-6.92757
 30
0
 70
     0
  0
VERTEX
  8
3
 62
     9
 10
-44.3448
 20
-6.92757
 30
0
 70
     0
  0
VERTEX
  8
3
 62
     9
 10
-42.3478
 20
-6.92757
 30
0
 70
     0
  0
VERTEX
  8
3
 62
     9
 10
-39.8712
 20
-6.92757
 30
0
 70
     0
  0
VERTEX
  8
3
 62
     9
 10
-39.1978
 20
-6.92757
 30
0
 70
     0
  0
VERTEX
  8
3
 62
     9
 10
-34.96
 20
-6.92757
 30
0
 70
     0
  0
VERTEX
  8
3
 62
     9
 10
-32.6062
 20
-6.92757
 30
0
 70
     0
  0
VERTEX
  8
3
 62
     9
 10
-26.0157
 20
-6.92757
 30
0
 70
     0
  0
VERTEX
  8
3
 62
     9
 10
-19.4419
 20
-6.92757
 30
0
 70
     0
  0
VERTEX
  8
3
 62
     9
 10
-18.7479
 20
-6.92757
 30
0
 70
     0
  0
VERTEX
  8
3
 62
     9
 10
-14.0396
 20
-6.92757
 30
0
 70
     0
  0
VERTEX
  8
3
 62
     9
 10
-12.903
 20
-6.92757
 30
0
 70
     0
  0
VERTEX
  8
3
 62
     9
 10
-11.136
 20
-6.92757
 30
0
 70
     0
  0
VERTEX
  8
3
 62
     9
 10
-9.06246
 20
-6.92757
 30
0
 70
     0
  0
VERTEX
  8
3
 62
     9
 10
-7.32925
 20
-6.92757
 30
0
 70
     0
  0
VERTEX
  8
3
 62
     9
 10
-6.42668
 20
-6.92757
 30
0
 70
     0
  0
VERTEX
  8
3
 62
     9
 10
-5.99951
 20
-6.92757
 30
0
 70
     0
  0
VERTEX
  8
3
 62
     9
 10
-5.05686
 20
-6.92757
 30
0
 70
     0
  0
VERTEX
  8
3
 62
     9
 10
-4.262
 20
-6.92757
 30
0
 70
     0
  0
VERTEX
  8
3
 62
     9
 10
-3.59344
 20
-6.92757
 30
0
 70
     0
  0
VERTEX
  8
3
 62
     9
 10
-3.03508
 20
-6.92757
 30
0
 70
     0
  0
VERTEX
  8
3
 62
     9
 10
-2.57502
 20
-6.92757
 30
0
 70
     0
  0
VERTEX
  8
3
 62
     9
 10
-2.20472
 20
-6.92757
 30
0
 70
     0
  0
VERTEX
  8
3
 62
     9
 10
-1.91844
 20
-6.92757
 30
0
 70
     0
  0
SEQEND
  0
POLYLINE
  8
3
 62
     9
 66
     1
 10
0
 20
0
 30
0
 70
     0
  0
VERTEX
  8
3
 62
     9
 10
-42.3768
 20
-5.92757
 30
0
 70
     0
  0
VERTEX
  8
3
 62
     9
 10
-42.4452
 20
-5.92757
 30
0
 70
     0
  0
VERTEX
  8
3
 62
     9
 10
-42.3227
 20
-5.92757
 30
0
 70
     0
  0
VERTEX
  8
3
 62
     9
 10
-42.0028
 20
-5.92757
 30
0
 70
     0
  0
VERTEX
  8
3
 62
     9
 10
-41.474
 20
-5.92757
 30
0
 70
     0
  0
VERTEX
  8
3
 62
     9
 10
-40.7191
 20
-5.92757
 30
0
 70
     0
  0
VERTEX
  8
3
 62
     9
 10
-39.7135
 20
-5.92757
 30
0
 70
     0
  0
VERTEX
  8
3
 62
     9
 10
-39.2551
 20
-5.92757
 30
0
 70
     0
  0
VERTEX
  8
3
 62
     9
 10
-37.825
 20
-5.92757
 30
0
 70
     0
  0
VERTEX
  8
3
 62
     9
 10
-35.0158
 20
-5.92757
 30
0
 70
     0
  0
VERTEX
  8
3
 62
     9
 10
-32.6551
 20
-5.92757
 30
0
 70
     0
  0
VERTEX
  8
3
 62
     9
 10
-28.2034
 20
-5.92757
 30
0
 70
     0
  0
VERTEX
  8
3
 62
     9
 10
-26.0572
 20
-5.92757
 30
0
 70
     0
  0
VERTEX
  8
3
 62
     9
 10
-24.8577
 20
-5.92757
 30
0
 70
     0
  0
VERTEX
  8
3
 62
     9
 10
-19.4811
 20
-5.92757
 30
0
 70
     0
  0
VERTEX
  8
3
 62
     9
 10
-18.4618
 20
-5.92757
 30
0
 70
     0
  0
VERTEX
  8
3
 62
     9
 10
-15.7816
 20
-5.92757
 30
0
 70
     0
  0
VERTEX
  8
3
 62
     9
 10
-13.5248
 20
-5.92757
 30
0
 70
     0
  0
VERTEX
  8
3
 62
     9
 10
-12.9528
 20
-5.92757
 30
0
 70
     0
  0
VERTEX
  8
3
 62
     9
 10
-12.1098
 20
-5.92757
 30
0
 70
     0
  0
VERTEX
  8
3
 62
     9
 10
-11.112
 20
-5.92757
 30
0
 70
     0
  0
VERTEX
  8
3
 62
     9
 10
-10.2999
 20
-5.92757
 30
0
 70
     0
  0
VERTEX
  8
3
 62
     9
 10
-9.6561
 20
-5.92757
 30
0
 70
     0
  0
VERTEX
  8
3
 62
     9
 10
-9.16936
 20
-5.92757
 30
0
 70
     0
  0
VERTEX
  8
3
 62
     9
 10
-8.83358
 20
-5.92757
 30
0
 70
     0
  0
SEQEND
  0
POLYLINE
  8
3
 62
     9
 66
     1
 10
0
 20
0
 30
0
 70
     0
  0
VERTEX
  8
3
 62
     9
 10
-29.6783
 20
-4.92757
 30
0
 70
     0
  0
VERTEX
  8
3
 62
     9
 10
-29.4365
 20
-4.92757
 30
0
 70
     0
  0
VERTEX
  8
3
 62
     9
 10
-28.1021
 20
-4.92757
 30
0
 70
     0
  0
VERTEX
  8
3
 62
     9
 10
-26.1364
 20
-4.92757
 30
0
 70
     0
  0
VERTEX
  8
3
 62
     9
 10
-24.1798
 20
-4.92757
 30
0
 70
     0
  0
VERTEX
  8
3
 62
     9
 10
-22.4059
 20
-4.92757
 30
0
 70
     0
  0
VERTEX
  8
3
 62
     9
 10
-21.5169
 20
-4.92757
 30
0
 70
     0
  0
SEQEND
  0
POLYLINE
  8
3
 62
    14
 66
     1
 10
0
 20
0
 30
0
 70
     0
  0
VERTEX
  8
3
 62
    14
 10
-23.4608
 20
-10.1245
 30
0
 70
     0
  0
VERTEX
  8
3
 62
    14
 10
-23.7858
 20
-9.61565
 30
0
 70
     0
  0
VERTEX
  8
3
 62
    14
 10
-24.7782
 20
-9.12451
 30
0
 70
     0
  0
VERTEX
  8
3
 62
    14
 10
-25.9611
 20
-8.79398
 30
0
 70
     0
  0
VERTEX
  8
3
 62
    14
 10
-29.7717
 20
-8.68241
 30
0
 70
     0
  0
VERTEX
  8
3
 62
    14
 10
-32.5368
 20
-8.6411
 30
0
 70
     0
  0
VERTEX
  8
3
 62
    14
 10
-33.0964
 20
-8.72223
 30
0
 70
     0
  0
VERTEX
  8
3
 62
    14
 10
-35.8354
 20
-9.24771
 30
0
 70
     0
  0
VERTEX
  8
3
 62
    14
 10
-37.5326
 20
-9.75212
 30
0
 70
     0
  0
VERTEX
  8
3
 62
    14
 10
-38.1162
 20
-10.2489
 30
0
 70
     0
  0
SEQEND
  0
POLYLINE
  8
3
 62
    14
 66
     1
 10
0
 20
0
 30
0
 70
     0
  0
VERTEX
  8
3
 62
    14
 10
-11.7601
 20
-10.1979
 30
0
 70
     0
  0
VERTEX
  8
3
 62
    14
 10
-11.841
 20
-9.77029
 30
0
 70
     0
  0
VERTEX
  8
3
 62
    14
 10
-12.0866
 20
-9.35512
 30
0
 70
     0
  0
VERTEX
  8
3
 62
    14
 10
-12.507
 20
-8.94711
 30
0
 70
     0
  0
VERTEX
  8
3
 62
    14
 10
-12.8722
 20
-8.7043
 30
0
 70
     0
  0
VERTEX
  8
3
 62
    14
 10
-13.2669
 20
-8.54027
 30
0
 70
     0
  0
VERTEX
  8
3
 62
    14
 10
-14.6038
 20
-8.12664
 30
0
 70
     0
  0
VERTEX
  8
3
 62
    14
 10
-16.3831
 20
-7.69836
 30
0
 70
     0
  0
VERTEX
  8
3
 62
    14
 10
-18.7234
 20
-7.2446
 30
0
 70
     0
  0
VERTEX
  8
3
 62
    14
 10
-19.4362
 20
-7.12847
 30
0
 70
     0
  0
VERTEX
  8
3
 62
    14
 10
-24.61
 20
-6.76257
 30
0
 70
     0
  0
VERTEX
  8
3
 62
    14
 10
-26.0248
 20
-6.67878
 30
0
 70
     0
  0
VERTEX
  8
3
 62
    14
 10
-32.6124
 20
-6.78673
 30
0
 70
     0
  0
VERTEX
  8
3
 62
    14
 10
-33.2131
 20
-6.84001
 30
0
 70
     0
  0
VERTEX
  8
3
 62
    14
 10
-39.1731
 20
-7.39187
 30
0
 70
     0
  0
VERTEX
  8
3
 62
    14
 10
-39.7782
 20
-7.48962
 30
0
 70
     0
  0
VERTEX
  8
3
 62
    14
 10
-43.0757
 20
-8.05902
 30
0
 70
     0
  0
VERTEX
  8
3
 62
    14
 10
-45.677
 20
-8.53368
 30
0
 70
     0
  0
VERTEX
  8
3
 62
    14
 10
-45.8252
 20
-8.5714
 30
0
 70
     0
  0
VERTEX
  8
3
 62
    14
 10
-47.3761
 20
-9.02466
 30
0
 70
     0
  0
VERTEX
  8
3
 62
    14
 10
-48.5771
 20
-9.43682
 30
0
 70
     0
  0
VERTEX
  8
3
 62
    14
 10
-49.4328
 20
-9.81826
 30
0
 70
     0
  0
VERTEX
  8
3
 62
    14
 10
-49.9461
 20
-10.1807
 30
0
 70
     0
  0
VERTEX
  8
3
 62
    14
 10
-50.1181
 20
-10.5371
 30
0
 70
     0
  0
SEQEND
  0
POLYLINE
  8
3
 62
    14
 66
     1
 10
0
 20
0
 30
0
 70
     0
  0
VERTEX
  8
3
 62
    14
 10
-5.56656
 20
-10.2968
 30
0
 70
     0
  0
VERTEX
  8
3
 62
    14
 10
-5.60635
 20
-9.94377
 30
0
 70
     0
  0
VERTEX
  8
3
 62
    14
 10
-5.72764
 20
-9.60178
 30
0
 70
     0
  0
VERTEX
  8
3
 62
    14
 10
-5.93499
 20
-9.26756
 30
0
 70
     0
  0
VERTEX
  8
3
 62
    14
 10
-6.23644
 20
-8.9377
 30
0
 70
     0
  0
VERTEX
  8
3
 62
    14
 10
-6.39019
 20
-8.81266
 30
0
 70
     0
  0
VERTEX
  8
3
 62
    14
 10
-6.76982
 20
-8.60503
 30
0
 70
     0
  0
VERTEX
  8
3
 62
    14
 10
-7.56893
 20
-8.26328
 30
0
 70
     0
  0
VERTEX
  8
3
 62
    14
 10
-8.60171
 20
-7.90763
 30
0
 70
     0
  0
VERTEX
  8
3
 62
    14
 10
-9.93158
 20
-7.52935
 30
0
 70
     0
  0
VERTEX
  8
3
 62
    14
 10
-11.6536
 20
-7.11609
 30
0
 70
     0
  0
VERTEX
  8
3
 62
    14
 10
-12.9053
 20
-6.85548
 30
0
 70
     0
  0
VERTEX
  8
3
 62
    14
 10
-14.6418
 20
-6.63701
 30
0
 70
     0
  0
VERTEX
  8
3
 62
    14
 10
-19.4724
 20
-6.10133
 30
0
 70
     0
  0
VERTEX
  8
3
 62
    14
 10
-21.2682
 20
-6.02693
 30
0
 70
     0
  0
VERTEX
  8
3
 62
    14
 10
-26.0615
 20
-5.84496
 30
0
 70
     0
  0
VERTEX
  8
3
 62
    14
 10
-32.1577
 20
-5.98888
 30
0
 70
     0
  0
VERTEX
  8
3
 62
    14
 10
-32.651
 20
-6.00096
 30
0
 70
     0
  0
VERTEX
  8
3
 62
    14
 10
-39.2176
 20
-6.5655
 30
0
 70
     0
  0
VERTEX
  8
3
 62
    14
 10
-40.368
 20
-6.73015
 30
0
 70
     0
  0
VERTEX
  8
3
 62
    14
 10
-45.1003
 20
-7.42009
 30
0
 70
     0
  0
VERTEX
  8
3
 62
    14
 10
-45.7386
 20
-7.51563
 30
0
 70
     0
  0
VERTEX
  8
3
 62
    14
 10
-48.27
 20
-8.03267
 30
0
 70
     0
  0
VERTEX
  8
3
 62
    14
 10
-50.8707
 20
-8.56839
 30
0
 70
     0
  0
VERTEX
  8
3
 62
    14
 10
-52.1928
 20
-8.84882
 30
0
 70
     0
  0
VERTEX
  8
3
 62
    14
 10
-52.8929
 20
-9.02887
 30
0
 70
     0
  0
VERTEX
  8
3
 62
    14
 10
-54.3244
 20
-9.41949
 30
0
 70
     0
  0
VERTEX
  8
3
 62
    14
 10
-55.4803
 20
-9.75516
 30
0
 70
     0
  0
VERTEX
  8
3
 62
    14
 10
-56.3703
 20
-10.0457
 30
0
 70
     0
  0
VERTEX
  8
3
 62
    14
 10
-57.0015
 20
-10.3016
 30
0
 70
     0
  0
VERTEX
  8
3
 62
    14
 10
-57.3788
 20
-10.5345
 30
0
 70
     0
  0
VERTEX
  8
3
 62
    14
 10
-57.5051
 20
-10.7572
 30
0
 70
     0
  0
SEQEND
  0
POLYLINE
  8
3
 62
    14
 66
     1
 10
0
 20
0
 30
0
 70
     0
  0
VERTEX
  8
3
 62
    14
 10
-1.12752
 20
-10.3899
 30
0
 70
     0
  0
VERTEX
  8
3
 62
    14
 10
-1.15396
 20
-10.1014
 30
0
 70
     0
  0
VERTEX
  8
3
 62
    14
 10
-1.23435
 20
-9.82223
 30
0
 70
     0
  0
VERTEX
  8
3
 62
    14
 10
-1.37171
 20
-9.55016
 30
0
 70
     0
  0
VERTEX
  8
3
 62
    14
 10
-1.57138
 20
-9.28295
 30
0
 70
     0
  0
VERTEX
  8
3
 62
    14
 10
-1.84157
 20
-9.01812
 30
0
 70
     0
  0
VERTEX
  8
3
 62
    14
 10
-2.19423
 20
-8.75278
 30
0
 70
     0
  0
VERTEX
  8
3
 62
    14
 10
-2.64652
 20
-8.48338
 30
0
 70
     0
  0
VERTEX
  8
3
 62
    14
 10
-3.22309
 20
-8.20531
 30
0
 70
     0
  0
VERTEX
  8
3
 62
    14
 10
-3.95998
 20
-7.91221
 30
0
 70
     0
  0
VERTEX
  8
3
 62
    14
 10
-4.91138
 20
-7.59496
 30
0
 70
     0
  0
VERTEX
  8
3
 62
    14
 10
-6.16189
 20
-7.23964
 30
0
 70
     0
  0
VERTEX
  8
3
 62
    14
 10
-6.41681
 20
-7.17536
 30
0
 70
     0
  0
VERTEX
  8
3
 62
    14
 10
-8.69585
 20
-6.7787
 30
0
 70
     0
  0
VERTEX
  8
3
 62
    14
 10
-12.6287
 20
-6.16801
 30
0
 70
     0
  0
VERTEX
  8
3
 62
    14
 10
-12.9384
 20
-6.12335
 30
0
 70
     0
  0
VERTEX
  8
3
 62
    14
 10
-19.5042
 20
-5.55626
 30
0
 70
     0
  0
VERTEX
  8
3
 62
    14
 10
-26.0908
 20
-5.36736
 30
0
 70
     0
  0
VERTEX
  8
3
 62
    14
 10
-32.678
 20
-5.54756
 30
0
 70
     0
  0
VERTEX
  8
3
 62
    14
 10
-35.1548
 20
-5.75222
 30
0
 70
     0
  0
VERTEX
  8
3
 62
    14
 10
-39.2446
 20
-6.09713
 30
0
 70
     0
  0
VERTEX
  8
3
 62
    14
 10
-42.6351
 20
-6.56469
 30
0
 70
     0
  0
VERTEX
  8
3
 62
    14
 10
-45.7691
 20
-7.00151
 30
0
 70
     0
  0
VERTEX
  8
3
 62
    14
 10
-47.593
 20
-7.34645
 30
0
 70
     0
  0
VERTEX
  8
3
 62
    14
 10
-51.302
 20
-8.04827
 30
0
 70
     0
  0
VERTEX
  8
3
 62
    14
 10
-52.2332
 20
-8.22548
 30
0
 70
     0
  0
VERTEX
  8
3
 62
    14
 10
-54.0904
 20
-8.65359
 30
0
 70
     0
  0
VERTEX
  8
3
 62
    14
 10
-56.349
 20
-9.16648
 30
0
 70
     0
  0
VERTEX
  8
3
 62
    14
 10
-58.2982
 20
-9.59564
 30
0
 70
     0
  0
VERTEX
  8
3
 62
    14
 10
-58.63
 20
-9.66962
 30
0
 70
     0
  0
VERTEX
  8
3
 62
    14
 10
-59.7076
 20
-9.93117
 30
0
 70
     0
  0
VERTEX
  8
3
 62
    14
 10
-60.8235
 20
-10.1962
 30
0
 70
     0
  0
VERTEX
  8
3
 62
    14
 10
-61.7202
 20
-10.4045
 30
0
 70
     0
  0
VERTEX
  8
3
 62
    14
 10
-62.4077
 20
-10.566
 30
0
 70
     0
  0
VERTEX
  8
3
 62
    14
 10
-62.8936
 20
-10.6914
 30
0
 70
     0
  0
VERTEX
  8
3
 62
    14
 10
-63.1829
 20
-10.7921
 30
0
 70
     0
  0
VERTEX
  8
3
 62
    14
 10
-63.2788
 20
-10.8803
 30
0
 70
     0
  0
SEQEND
  0
POLYLINE
  8
3
 62
    14
 66
     1
 10
0
 20
0
 30
0
 70
     0
  0
VERTEX
  8
3
 62
    14
 10
0
 20
-7.93705
 30
0
 70
     0
  0
VERTEX
  8
3
 62
    14
 10
-1.16809
 20
-7.63651
 30
0
 70
     0
  0
VERTEX
  8
3
 62
    14
 10
-2.91396
 20
-7.25072
 30
0
 70
     0
  0
VERTEX
  8
3
 62
    14
 10
-5.75829
 20
-6.69704
 30
0
 70
     0
  0
VERTEX
  8
3
 62
    14
 10
-6.44768
 20
-6.5721
 30
0
 70
     0
  0
VERTEX
  8
3
 62
    14
 10
-12.9716
 20
-5.73272
 30
0
 70
     0
  0
VERTEX
  8
3
 62
    14
 10
-19.5341
 20
-5.23479
 30
0
 70
     0
  0
VERTEX
  8
3
 62
    14
 10
-26.116
 20
-5.07935
 30
0
 70
     0
  0
VERTEX
  8
3
 62
    14
 10
-32.699
 20
-5.26838
 30
0
 70
     0
  0
VERTEX
  8
3
 62
    14
 10
-34.7027
 20
-5.43166
 30
0
 70
     0
  0
VERTEX
  8
3
 62
    14
 10
-39.2627
 20
-5.81044
 30
0
 70
     0
  0
VERTEX
  8
3
 62
    14
 10
-42.9081
 20
-6.30111
 30
0
 70
     0
  0
VERTEX
  8
3
 62
    14
 10
-45.7869
 20
-6.69294
 30
0
 70
     0
  0
VERTEX
  8
3
 62
    14
 10
-48.5184
 20
-7.19777
 30
0
 70
     0
  0
VERTEX
  8
3
 62
    14
 10
-52.2533
 20
-7.88658
 30
0
 70
     0
  0
VERTEX
  8
3
 62
    14
 10
-52.847
 20
-8.02031
 30
0
 70
     0
  0
VERTEX
  8
3
 62
    14
 10
-56.0513
 20
-8.74032
 30
0
 70
     0
  0
VERTEX
  8
3
 62
    14
 10
-58.6525
 20
-9.30545
 30
0
 70
     0
  0
VERTEX
  8
3
 62
    14
 10
-58.8438
 20
-9.35161
 30
0
 70
     0
  0
VERTEX
  8
3
 62
    14
 10
-60.8905
 20
-9.83813
 30
0
 70
     0
  0
VERTEX
  8
3
 62
    14
 10
-62.6599
 20
-10.2291
 30
0
 70
     0
  0
VERTEX
  8
3
 62
    14
 10
-64.1749
 20
-10.533
 30
0
 70
     0
  0
VERTEX
  8
3
 62
    14
 10
-65
 20
-10.6832
 30
0
 70
     0
  0
SEQEND
  0
POLYLINE
  8
3
 62
    14
 66
     1
 10
0
 20
0
 30
0
 70
     0
  0
VERTEX
  8
3
 62
    14
 10
0
 20
-7.3162
 30
0
 70
     0
  0
VERTEX
  8
3
 62
    14
 10
-6.47987
 20
-6.28757
 30
0
 70
     0
  0
VERTEX
  8
3
 62
    14
 10
-13.0047
 20
-5.52188
 30
0
 70
     0
  0
VERTEX
  8
3
 62
    14
 10
-15.2599
 20
-5.36152
 30
0
 70
     0
  0
VERTEX
  8
3
 62
    14
 10
-19.5626
 20
-5.05731
 30
0
 70
     0
  0
VERTEX
  8
3
 62
    14
 10
-26.1387
 20
-4.91591
 30
0
 70
     0
  0
VERTEX
  8
3
 62
    14
 10
-31.7278
 20
-5.07592
 30
0
 70
     0
  0
VERTEX
  8
3
 62
    14
 10
-32.7159
 20
-5.10538
 30
0
 70
     0
  0
VERTEX
  8
3
 62
    14
 10
-39.2752
 20
-5.63949
 30
0
 70
     0
  0
VERTEX
  8
3
 62
    14
 10
-41.2949
 20
-5.90562
 30
0
 70
     0
  0
VERTEX
  8
3
 62
    14
 10
-45.7972
 20
-6.50656
 30
0
 70
     0
  0
VERTEX
  8
3
 62
    14
 10
-48.0029
 20
-6.90744
 30
0
 70
     0
  0
VERTEX
  8
3
 62
    14
 10
-52.2636
 20
-7.68476
 30
0
 70
     0
  0
VERTEX
  8
3
 62
    14
 10
-53.113
 20
-7.87537
 30
0
 70
     0
  0
VERTEX
  8
3
 62
    14
 10
-57.0074
 20
-8.74609
 30
0
 70
     0
  0
VERTEX
  8
3
 62
    14
 10
-58.6629
 20
-9.11024
 30
0
 70
     0
  0
VERTEX
  8
3
 62
    14
 10
-60.1757
 20
-9.48504
 30
0
 70
     0
  0
VERTEX
  8
3
 62
    14
 10
-62.7217
 20
-10.0932
 30
0
 70
     0
  0
VERTEX
  8
3
 62
    14
 10
-64.9466
 20
-10.587
 30
0
 70
     0
  0
VERTEX
  8
3
 62
    14
 10
-65
 20
-10.5984
 30
0
 70
     0
  0
SEQEND
  0
POLYLINE
  8
3
 62
    14
 66
     1
 10
0
 20
0
 30
0
 70
     0
  0
VERTEX
  8
3
 62
    14
 10
-14.733
 20
-5.31387
 30
0
 70
     0
  0
VERTEX
  8
3
 62
    14
 10
-19.5903
 20
-4.9795
 30
0
 70
     0
  0
VERTEX
  8
3
 62
    14
 10
-26.1595
 20
-4.83868
 30
0
 70
     0
  0
VERTEX
  8
3
 62
    14
 10
-26.7605
 20
-4.85552
 30
0
 70
     0
  0
VERTEX
  8
3
 62
    14
 10
-32.7298
 20
-5.03081
 30
0
 70
     0
  0
VERTEX
  8
3
 62
    14
 10
-37.596
 20
-5.41523
 30
0
 70
     0
  0
VERTEX
  8
3
 62
    14
 10
-39.2837
 20
-5.55137
 30
0
 70
     0
  0
VERTEX
  8
3
 62
    14
 10
-45.8025
 20
-6.40064
 30
0
 70
     0
  0
VERTEX
  8
3
 62
    14
 10
-45.9463
 20
-6.4263
 30
0
 70
     0
  0
VERTEX
  8
3
 62
    14
 10
-52.1468
 20
-7.54327
 30
0
 70
     0
  0
VERTEX
  8
3
 62
    14
 10
-52.2681
 20
-7.56527
 30
0
 70
     0
  0
VERTEX
  8
3
 62
    14
 10
-56.8626
 20
-8.59408
 30
0
 70
     0
  0
VERTEX
  8
3
 62
    14
 10
-58.6675
 20
-8.99504
 30
0
 70
     0
  0
VERTEX
  8
3
 62
    14
 10
-60.6876
 20
-9.5073
 30
0
 70
     0
  0
VERTEX
  8
3
 62
    14
 10
-63.812
 20
-10.2769
 30
0
 70
     0
  0
VERTEX
  8
3
 62
    14
 10
-65
 20
-10.5587
 30
0
 70
     0
  0
SEQEND
  0
POLYLINE
  8
3
 62
    14
 66
     1
 10
0
 20
0
 30
0
 70
     0
  0
VERTEX
  8
3
 62
    14
 10
-31.9615
 20
-4.99302
 30
0
 70
     0
  0
VERTEX
  8
3
 62
    14
 10
-32.7417
 20
-5.01547
 30
0
 70
     0
  0
VERTEX
  8
3
 62
    14
 10
-39.289
 20
-5.5272
 30
0
 70
     0
  0
VERTEX
  8
3
 62
    14
 10
-41.6309
 20
-5.82381
 30
0
 70
     0
  0
VERTEX
  8
3
 62
    14
 10
-45.8037
 20
-6.36134
 30
0
 70
     0
  0
VERTEX
  8
3
 62
    14
 10
-49.4065
 20
-6.99718
 30
0
 70
     0
  0
VERTEX
  8
3
 62
    14
 10
-52.2681
 20
-7.50802
 30
0
 70
     0
  0
VERTEX
  8
3
 62
    14
 10
-55.4578
 20
-8.21635
 30
0
 70
     0
  0
VERTEX
  8
3
 62
    14
 10
-58.6685
 20
-8.93086
 30
0
 70
     0
  0
VERTEX
  8
3
 62
    14
 10
-60.247
 20
-9.33699
 30
0
 70
     0
  0
VERTEX
  8
3
 62
    14
 10
-64.0726
 20
-10.3082
 30
0
 70
     0
  0
VERTEX
  8
3
 62
    14
 10
-65
 20
-10.5388
 30
0
 70
     0
  0
SEQEND
  0
POLYLINE
  8
3
 62
    14
 66
     1
 10
0
 20
0
 30
0
 70
     0
  0
VERTEX
  8
3
 62
    14
 10
-44.8048
 20
-6.23848
 30
0
 70
     0
  0
VERTEX
  8
3
 62
    14
 10
-45.8022
 20
-6.36497
 30
0
 70
     0
  0
VERTEX
  8
3
 62
    14
 10
-52.2653
 20
-7.49059
 30
0
 70
     0
  0
VERTEX
  8
3
 62
    14
 10
-52.5434
 20
-7.5513
 30
0
 70
     0
  0
VERTEX
  8
3
 62
    14
 10
-58.6222
 20
-8.8914
 30
0
 70
     0
  0
VERTEX
  8
3
 62
    14
 10
-58.6669
 20
-8.90131
 30
0
 70
     0
  0
VERTEX
  8
3
 62
    14
 10
-63.3445
 20
-10.1083
 30
0
 70
     0
  0
VERTEX
  8
3
 62
    14
 10
-65
 20
-10.5313
 30
0
 70
     0
  0
SEQEND
  0
POLYLINE
  8
3
 62
    14
 66
     1
 10
0
 20
0
 30
0
 70
     0
  0
VERTEX
  8
3
 62
    14
 10
-55.1349
 20
-8.13095
 30
0
 70
     0
  0
VERTEX
  8
3
 62
    14
 10
-58.6633
 20
-8.90126
 30
0
 70
     0
  0
VERTEX
  8
3
 62
    14
 10
-61.3571
 20
-9.59344
 30
0
 70
     0
  0
VERTEX
  8
3
 62
    14
 10
-65
 20
-10.5323
 30
0
 70
     0
  0
SEQEND
  0
POLYLINE
  8
3
 62
    14
 66
     1
 10
0
 20
0
 30
0
 70
     0
  0
VERTEX
  8
3
 62
    14
 10
-64.0688
 20
-10.3003
 30
0
 70
     0
  0
VERTEX
  8
3
 62
    14
 10
-65
 20
-10.5396
 30
0
 70
     0
  0
SEQEND
  0
POLYLINE
  8
3
 62
    14
 66
     1
 10
0
 20
0
 30
0
 70
     0
  0
VERTEX
  8
3
 62
    14
 10
-22.7983
 20
-10.1192
 30
0
 70
     0
  0
VERTEX
  8
3
 62
    14
 10
-22.7984
 20
-10.2
 30
0
 70
     0
  0
VERTEX
  8
3
 62
    14
 10
-22.7984
 20
-10.2809
 30
0
 70
     0
  0
VERTEX
  8
3
 62
    14
 10
-22.7985
 20
-10.3617
 30
0
 70
     0
  0
VERTEX
  8
3
 62
    14
 10
-22.7986
 20
-10.4426
 30
0
 70
     0
  0
VERTEX
  8
3
 62
    14
 10
-22.7986
 20
-10.5234
 30
0
 70
     0
  0
VERTEX
  8
3
 62
    14
 10
-22.7986
 20
-10.6042
 30
0
 70
     0
  0
VERTEX
  8
3
 62
    14
 10
-22.7987
 20
-10.6851
 30
0
 70
     0
  0
VERTEX
  8
3
 62
    14
 10
-22.7987
 20
-10.7659
 30
0
 70
     0
  0
VERTEX
  8
3
 62
    14
 10
-22.7987
 20
-10.8467
 30
0
 70
     0
  0
VERTEX
  8
3
 62
    14
 10
-22.7987
 20
-10.9276
 30
0
 70
     0
  0
SEQEND
  0
POLYLINE
  8
3
 62
    14
 66
     1
 10
0
 20
0
 30
0
 70
     0
  0
VERTEX
  8
3
 62
    14
 10
-38.3343
 20
-10.2507
 30
0
 70
     0
  0
VERTEX
  8
3
 62
    14
 10
-38.3344
 20
-10.3184
 30
0
 70
     0
  0
VERTEX
  8
3
 62
    14
 10
-38.3345
 20
-10.3861
 30
0
 70
     0
  0
VERTEX
  8
3
 62
    14
 10
-38.3346
 20
-10.4538
 30
0
 70
     0
  0
VERTEX
  8
3
 62
    14
 10
-38.3346
 20
-10.5214
 30
0
 70
     0
  0
VERTEX
  8
3
 62
    14
 10
-38.3347
 20
-10.5891
 30
0
 70
     0
  0
VERTEX
  8
3
 62
    14
 10
-38.3347
 20
-10.6568
 30
0
 70
     0
  0
VERTEX
  8
3
 62
    14
 10
-38.3348
 20
-10.7245
 30
0
 70
     0
  0
VERTEX
  8
3
 62
    14
 10
-38.3348
 20
-10.7922
 30
0
 70
     0
  0
VERTEX
  8
3
 62
    14
 10
-38.3348
 20
-10.8599
 30
0
 70
     0
  0
VERTEX
  8
3
 62
    14
 10
-38.3348
 20
-10.9276
 30
0
 70
     0
  0
SEQEND
  0
POLYLINE
  8
3
 62
    14
 66
     1
 10
0
 20
0
 30
0
 70
     0
  0
VERTEX
  8
3
 62
    14
 10
-11.6301
 20
-10.1979
 30
0
 70
     0
  0
VERTEX
  8
3
 62
    14
 10
-11.6301
 20
-10.2709
 30
0
 70
     0
  0
VERTEX
  8
3
 62
    14
 10
-11.6301
 20
-10.3438
 30
0
 70
     0
  0
VERTEX
  8
3
 62
    14
 10
-11.6301
 20
-10.4168
 30
0
 70
     0
  0
VERTEX
  8
3
 62
    14
 10
-11.6301
 20
-10.4898
 30
0
 70
     0
  0
VERTEX
  8
3
 62
    14
 10
-11.6301
 20
-10.5627
 30
0
 70
     0
  0
VERTEX
  8
3
 62
    14
 10
-11.6301
 20
-10.6357
 30
0
 70
     0
  0
VERTEX
  8
3
 62
    14
 10
-11.6301
 20
-10.7087
 30
0
 70
     0
  0
VERTEX
  8
3
 62
    14
 10
-11.6301
 20
-10.7816
 30
0
 70
     0
  0
VERTEX
  8
3
 62
    14
 10
-11.6301
 20
-10.8546
 30
0
 70
     0
  0
VERTEX
  8
3
 62
    14
 10
-11.6301
 20
-10.9276
 30
0
 70
     0
  0
SEQEND
  0
POLYLINE
  8
3
 62
    14
 66
     1
 10
0
 20
0
 30
0
 70
     0
  0
VERTEX
  8
3
 62
    14
 10
-50.2666
 20
-10.539
 30
0
 70
     0
  0
VERTEX
  8
3
 62
    14
 10
-50.2666
 20
-10.5778
 30
0
 70
     0
  0
VERTEX
  8
3
 62
    14
 10
-50.2665
 20
-10.6167
 30
0
 70
     0
  0
VERTEX
  8
3
 62
    14
 10
-50.2665
 20
-10.6556
 30
0
 70
     0
  0
VERTEX
  8
3
 62
    14
 10
-50.2665
 20
-10.6944
 30
0
 70
     0
  0
VERTEX
  8
3
 62
    14
 10
-50.2665
 20
-10.7333
 30
0
 70
     0
  0
VERTEX
  8
3
 62
    14
 10
-50.2665
 20
-10.7721
 30
0
 70
     0
  0
VERTEX
  8
3
 62
    14
 10
-50.2665
 20
-10.811
 30
0
 70
     0
  0
VERTEX
  8
3
 62
    14
 10
-50.2665
 20
-10.8498
 30
0
 70
     0
  0
VERTEX
  8
3
 62
    14
 10
-50.2665
 20
-10.8887
 30
0
 70
     0
  0
VERTEX
  8
3
 62
    14
 10
-50.2665
 20
-10.9276
 30
0
 70
     0
  0
SEQEND
  0
POLYLINE
  8
3
 62
    14
 66
     1
 10
0
 20
0
 30
0
 70
     0
  0
VERTEX
  8
3
 62
    14
 10
-5.48144
 20
-10.2975
 30
0
 70
     0
  0
VERTEX
  8
3
 62
    14
 10
-5.48144
 20
-10.3605
 30
0
 70
     0
  0
VERTEX
  8
3
 62
    14
 10
-5.48144
 20
-10.4235
 30
0
 70
     0
  0
VERTEX
  8
3
 62
    14
 10
-5.48145
 20
-10.4865
 30
0
 70
     0
  0
VERTEX
  8
3
 62
    14
 10
-5.48145
 20
-10.5495
 30
0
 70
     0
  0
VERTEX
  8
3
 62
    14
 10
-5.48145
 20
-10.6125
 30
0
 70
     0
  0
VERTEX
  8
3
 62
    14
 10
-5.48145
 20
-10.6755
 30
0
 70
     0
  0
VERTEX
  8
3
 62
    14
 10
-5.48145
 20
-10.7385
 30
0
 70
     0
  0
VERTEX
  8
3
 62
    14
 10
-5.48145
 20
-10.8016
 30
0
 70
     0
  0
VERTEX
  8
3
 62
    14
 10
-5.48145
 20
-10.8646
 30
0
 70
     0
  0
VERTEX
  8
3
 62
    14
 10
-5.48145
 20
-10.9276
 30
0
 70
     0
  0
SEQEND
  0
POLYLINE
  8
3
 62
    14
 66
     1
 10
0
 20
0
 30
0
 70
     0
  0
VERTEX
  8
3
 62
    14
 10
-57.5643
 20
-10.76
 30
0
 70
     0
  0
VERTEX
  8
3
 62
    14
 10
-57.5643
 20
-10.7767
 30
0
 70
     0
  0
VERTEX
  8
3
 62
    14
 10
-57.5643
 20
-10.7935
 30
0
 70
     0
  0
VERTEX
  8
3
 62
    14
 10
-57.5643
 20
-10.8102
 30
0
 70
     0
  0
VERTEX
  8
3
 62
    14
 10
-57.5643
 20
-10.827
 30
0
 70
     0
  0
VERTEX
  8
3
 62
    14
 10
-57.5643
 20
-10.8438
 30
0
 70
     0
  0
VERTEX
  8
3
 62
    14
 10
-57.5643
 20
-10.8605
 30
0
 70
     0
  0
VERTEX
  8
3
 62
    14
 10
-57.5643
 20
-10.8773
 30
0
 70
     0
  0
VERTEX
  8
3
 62
    14
 10
-57.5643
 20
-10.894
 30
0
 70
     0
  0
VERTEX
  8
3
 62
    14
 10
-57.5643
 20
-10.9108
 30
0
 70
     0
  0
VERTEX
  8
3
 62
    14
 10
-57.5643
 20
-10.9276
 30
0
 70
     0
  0
SEQEND
  0
POLYLINE
  8
3
 62
    14
 66
     1
 10
0
 20
0
 30
0
 70
     0
  0
VERTEX
  8
3
 62
    14
 10
-1.03084
 20
-10.3907
 30
0
 70
     0
  0
VERTEX
  8
3
 62
    14
 10
-1.03084
 20
-10.4444
 30
0
 70
     0
  0
VERTEX
  8
3
 62
    14
 10
-1.03084
 20
-10.498
 30
0
 70
     0
  0
VERTEX
  8
3
 62
    14
 10
-1.03084
 20
-10.5517
 30
0
 70
     0
  0
VERTEX
  8
3
 62
    14
 10
-1.03084
 20
-10.6054
 30
0
 70
     0
  0
VERTEX
  8
3
 62
    14
 10
-1.03084
 20
-10.6591
 30
0
 70
     0
  0
VERTEX
  8
3
 62
    14
 10
-1.03084
 20
-10.7128
 30
0
 70
     0
  0
VERTEX
  8
3
 62
    14
 10
-1.03085
 20
-10.7665
 30
0
 70
     0
  0
VERTEX
  8
3
 62
    14
 10
-1.03085
 20
-10.8202
 30
0
 70
     0
  0
VERTEX
  8
3
 62
    14
 10
-1.03085
 20
-10.8739
 30
0
 70
     0
  0
VERTEX
  8
3
 62
    14
 10
-1.03085
 20
-10.9276
 30
0
 70
     0
  0
SEQEND
  0
POLYLINE
  8
3
 62
    14
 66
     1
 10
0
 20
0
 30
0
 70
     0
  0
VERTEX
  8
3
 62
    14
 10
-63.3592
 20
-10.8894
 30
0
 70
     0
  0
VERTEX
  8
3
 62
    14
 10
-63.3592
 20
-10.8932
 30
0
 70
     0
  0
VERTEX
  8
3
 62
    14
 10
-63.3592
 20
-10.897
 30
0
 70
     0
  0
VERTEX
  8
3
 62
    14
 10
-63.3592
 20
-10.9009
 30
0
 70
     0
  0
VERTEX
  8
3
 62
    14
 10
-63.3592
 20
-10.9047
 30
0
 70
     0
  0
VERTEX
  8
3
 62
    14
 10
-63.3592
 20
-10.9085
 30
0
 70
     0
  0
VERTEX
  8
3
 62
    14
 10
-63.3592
 20
-10.9123
 30
0
 70
     0
  0
VERTEX
  8
3
 62
    14
 10
-63.3592
 20
-10.9161
 30
0
 70
     0
  0
VERTEX
  8
3
 62
    14
 10
-63.3592
 20
-10.9199
 30
0
 70
     0
  0
VERTEX
  8
3
 62
    14
 10
-63.3592
 20
-10.9237
 30
0
 70
     0
  0
VERTEX
  8
3
 62
    14
 10
-63.3592
 20
-10.9276
 30
0
 70
     0
  0
SEQEND
  0
ENDSEC
  0
EOF
