  0
SECTION
  2
ENTITIES
  0
3DFACE
  8
0
 62
2
  6
CONTINUOUS
 10
-0.325000
 20
0.000000
 30
-0.714000
 11
6.825000
 21
0.000000
 31
-0.714000
 12
6.825000
 22
0.000000
 32
1.075000
 13
-0.325000
 23
0.000000
 33
1.075000
  0
3DFACE
  8
0
 62
2
  6
CONTINUOUS
 10
-0.325000
 20
0.000000
 30
-0.714000
 11
6.825000
 21
0.000000
 31
-0.714000
 12
6.825000
 22
0.000000
 32
1.075000
 13
-0.325000
 23
0.000000
 33
1.075000
  0
POLYLINE
  8
0
 62
4
  6
CONTINUOUS
 66
  1
 70
  8
  0
VERTEX
  8
0
 10
0.000000
 20
0.029000
 30
0.318000
 70
 32
 40
0.000000
  0
VERTEX
  8
0
 10
0.000000
 20
0.026010
 30
0.257580
 70
 32
 40
0.000000
  0
VERTEX
  8
0
 10
0.000000
 20
0.023040
 30
0.203520
 70
 32
 40
0.000000
  0
VERTEX
  8
0
 10
0.000000
 20
0.020090
 30
0.155820
 70
 32
 40
0.000000
  0
VERTEX
  8
0
 10
0.000000
 20
0.017160
 30
0.114480
 70
 32
 40
0.000000
  0
VERTEX
  8
0
 10
0.000000
 20
0.014250
 30
0.079500
 70
 32
 40
0.000000
  0
VERTEX
  8
0
 10
0.000000
 20
0.011360
 30
0.050880
 70
 32
 40
0.000000
  0
VERTEX
  8
0
 10
0.000000
 20
0.008490
 30
0.028620
 70
 32
 40
0.000000
  0
VERTEX
  8
0
 10
0.000000
 20
0.005640
 30
0.012720
 70
 32
 40
0.000000
  0
VERTEX
  8
0
 10
0.000000
 20
0.002810
 30
0.003180
 70
 32
 40
0.000000
  0
VERTEX
  8
0
 10
0.000000
 20
0.000000
 30
0.000000
 70
 32
 40
0.000000
  0
SEQEND
  8
0
  0
POLYLINE
  8
0
 62
4
  6
CONTINUOUS
 66
  1
 70
  8
  0
VERTEX
  8
0
 10
0.000000
 20
-0.029000
 30
0.318000
 70
 32
 40
0.000000
  0
VERTEX
  8
0
 10
0.000000
 20
-0.026010
 30
0.257580
 70
 32
 40
0.000000
  0
VERTEX
  8
0
 10
0.000000
 20
-0.023040
 30
0.203520
 70
 32
 40
0.000000
  0
VERTEX
  8
0
 10
0.000000
 20
-0.020090
 30
0.155820
 70
 32
 40
0.000000
  0
VERTEX
  8
0
 10
0.000000
 20
-0.017160
 30
0.114480
 70
 32
 40
0.000000
  0
VERTEX
  8
0
 10
0.000000
 20
-0.014250
 30
0.079500
 70
 32
 40
0.000000
  0
VERTEX
  8
0
 10
0.000000
 20
-0.011360
 30
0.050880
 70
 32
 40
0.000000
  0
VERTEX
  8
0
 10
0.000000
 20
-0.008490
 30
0.028620
 70
 32
 40
0.000000
  0
VERTEX
  8
0
 10
0.000000
 20
-0.005640
 30
0.012720
 70
 32
 40
0.000000
  0
VERTEX
  8
0
 10
0.000000
 20
-0.002810
 30
0.003180
 70
 32
 40
0.000000
  0
VERTEX
  8
0
 10
0.000000
 20
0.000000
 30
0.000000
 70
 32
 40
0.000000
  0
SEQEND
  8
0
  0
POLYLINE
  8
0
 62
4
  6
CONTINUOUS
 66
  1
 70
  8
  0
VERTEX
  8
0
 10
1.300000
 20
0.301000
 30
0.293000
 70
 32
 40
0.000000
  0
VERTEX
  8
0
 10
1.300000
 20
0.297990
 30
0.198950
 70
 32
 40
0.000000
  0
VERTEX
  8
0
 10
1.300000
 20
0.288960
 30
0.114800
 70
 32
 40
0.000000
  0
VERTEX
  8
0
 10
1.300000
 20
0.273910
 30
0.040550
 70
 32
 40
0.000000
  0
VERTEX
  8
0
 10
1.300000
 20
0.252840
 30
-0.023800
 70
 32
 40
0.000000
  0
VERTEX
  8
0
 10
1.300000
 20
0.225750
 30
-0.078250
 70
 32
 40
0.000000
  0
VERTEX
  8
0
 10
1.300000
 20
0.192640
 30
-0.122800
 70
 32
 40
0.000000
  0
VERTEX
  8
0
 10
1.300000
 20
0.153510
 30
-0.157450
 70
 32
 40
0.000000
  0
VERTEX
  8
0
 10
1.300000
 20
0.108360
 30
-0.182200
 70
 32
 40
0.000000
  0
VERTEX
  8
0
 10
1.300000
 20
0.057190
 30
-0.197050
 70
 32
 40
0.000000
  0
VERTEX
  8
0
 10
1.300000
 20
0.000000
 30
-0.202000
 70
 32
 40
0.000000
  0
SEQEND
  8
0
  0
POLYLINE
  8
0
 62
4
  6
CONTINUOUS
 66
  1
 70
  8
  0
VERTEX
  8
0
 10
1.300000
 20
-0.301000
 30
0.293000
 70
 32
 40
0.000000
  0
VERTEX
  8
0
 10
1.300000
 20
-0.297990
 30
0.198950
 70
 32
 40
0.000000
  0
VERTEX
  8
0
 10
1.300000
 20
-0.288960
 30
0.114800
 70
 32
 40
0.000000
  0
VERTEX
  8
0
 10
1.300000
 20
-0.273910
 30
0.040550
 70
 32
 40
0.000000
  0
VERTEX
  8
0
 10
1.300000
 20
-0.252840
 30
-0.023800
 70
 32
 40
0.000000
  0
VERTEX
  8
0
 10
1.300000
 20
-0.225750
 30
-0.078250
 70
 32
 40
0.000000
  0
VERTEX
  8
0
 10
1.300000
 20
-0.192640
 30
-0.122800
 70
 32
 40
0.000000
  0
VERTEX
  8
0
 10
1.300000
 20
-0.153510
 30
-0.157450
 70
 32
 40
0.000000
  0
VERTEX
  8
0
 10
1.300000
 20
-0.108360
 30
-0.182200
 70
 32
 40
0.000000
  0
VERTEX
  8
0
 10
1.300000
 20
-0.057190
 30
-0.197050
 70
 32
 40
0.000000
  0
VERTEX
  8
0
 10
1.300000
 20
0.000000
 30
-0.202000
 70
 32
 40
0.000000
  0
SEQEND
  8
0
  0
POLYLINE
  8
0
 62
4
  6
CONTINUOUS
 66
  1
 70
  8
  0
VERTEX
  8
0
 10
2.600000
 20
0.475000
 30
0.268000
 70
 32
 40
0.000000
  0
VERTEX
  8
0
 10
2.600000
 20
0.481010
 30
0.179320
 70
 32
 40
0.000000
  0
VERTEX
  8
0
 10
2.600000
 20
0.473590
 30
0.094340
 70
 32
 40
0.000000
  0
VERTEX
  8
0
 10
2.600000
 20
0.452730
 30
0.013050
 70
 32
 40
0.000000
  0
VERTEX
  8
0
 10
2.600000
 20
0.418440
 30
-0.064550
 70
 32
 40
0.000000
  0
VERTEX
  8
0
 10
2.600000
 20
0.370710
 30
-0.138450
 70
 32
 40
0.000000
  0
VERTEX
  8
0
 10
2.600000
 20
0.311370
 30
-0.205340
 70
 32
 40
0.000000
  0
VERTEX
  8
0
 10
2.600000
 20
0.244540
 30
-0.257700
 70
 32
 40
0.000000
  0
VERTEX
  8
0
 10
2.600000
 20
0.170370
 30
-0.295270
 70
 32
 40
0.000000
  0
VERTEX
  8
0
 10
2.600000
 20
0.088850
 30
-0.318040
 70
 32
 40
0.000000
  0
VERTEX
  8
0
 10
2.600000
 20
0.000000
 30
-0.326000
 70
 32
 40
0.000000
  0
SEQEND
  8
0
  0
POLYLINE
  8
0
 62
4
  6
CONTINUOUS
 66
  1
 70
  8
  0
VERTEX
  8
0
 10
2.600000
 20
-0.475000
 30
0.268000
 70
 32
 40
0.000000
  0
VERTEX
  8
0
 10
2.600000
 20
-0.481010
 30
0.179320
 70
 32
 40
0.000000
  0
VERTEX
  8
0
 10
2.600000
 20
-0.473590
 30
0.094340
 70
 32
 40
0.000000
  0
VERTEX
  8
0
 10
2.600000
 20
-0.452730
 30
0.013050
 70
 32
 40
0.000000
  0
VERTEX
  8
0
 10
2.600000
 20
-0.418440
 30
-0.064550
 70
 32
 40
0.000000
  0
VERTEX
  8
0
 10
2.600000
 20
-0.370710
 30
-0.138450
 70
 32
 40
0.000000
  0
VERTEX
  8
0
 10
2.600000
 20
-0.311370
 30
-0.205340
 70
 32
 40
0.000000
  0
VERTEX
  8
0
 10
2.600000
 20
-0.244540
 30
-0.257700
 70
 32
 40
0.000000
  0
VERTEX
  8
0
 10
2.600000
 20
-0.170370
 30
-0.295270
 70
 32
 40
0.000000
  0
VERTEX
  8
0
 10
2.600000
 20
-0.088850
 30
-0.318040
 70
 32
 40
0.000000
  0
VERTEX
  8
0
 10
2.600000
 20
0.000000
 30
-0.326000
 70
 32
 40
0.000000
  0
SEQEND
  8
0
  0
POLYLINE
  8
0
 62
4
  6
CONTINUOUS
 66
  1
 70
  8
  0
VERTEX
  8
0
 10
3.900000
 20
0.541000
 30
0.243000
 70
 32
 40
0.000000
  0
VERTEX
  8
0
 10
3.900000
 20
0.539200
 30
0.152070
 70
 32
 40
0.000000
  0
VERTEX
  8
0
 10
3.900000
 20
0.523610
 30
0.065940
 70
 32
 40
0.000000
  0
VERTEX
  8
0
 10
3.900000
 20
0.494220
 30
-0.015400
 70
 32
 40
0.000000
  0
VERTEX
  8
0
 10
3.900000
 20
0.451030
 30
-0.091950
 70
 32
 40
0.000000
  0
VERTEX
  8
0
 10
3.900000
 20
0.394070
 30
-0.163690
 70
 32
 40
0.000000
  0
VERTEX
  8
0
 10
3.900000
 20
0.327590
 30
-0.225750
 70
 32
 40
0.000000
  0
VERTEX
  8
0
 10
3.900000
 20
0.254950
 30
-0.274300
 70
 32
 40
0.000000
  0
VERTEX
  8
0
 10
3.900000
 20
0.176140
 30
-0.309360
 70
 32
 40
0.000000
  0
VERTEX
  8
0
 10
3.900000
 20
0.091150
 30
-0.330930
 70
 32
 40
0.000000
  0
VERTEX
  8
0
 10
3.900000
 20
0.000000
 30
-0.339000
 70
 32
 40
0.000000
  0
SEQEND
  8
0
  0
POLYLINE
  8
0
 62
4
  6
CONTINUOUS
 66
  1
 70
  8
  0
VERTEX
  8
0
 10
3.900000
 20
-0.541000
 30
0.243000
 70
 32
 40
0.000000
  0
VERTEX
  8
0
 10
3.900000
 20
-0.539200
 30
0.152070
 70
 32
 40
0.000000
  0
VERTEX
  8
0
 10
3.900000
 20
-0.523610
 30
0.065940
 70
 32
 40
0.000000
  0
VERTEX
  8
0
 10
3.900000
 20
-0.494220
 30
-0.015400
 70
 32
 40
0.000000
  0
VERTEX
  8
0
 10
3.900000
 20
-0.451030
 30
-0.091950
 70
 32
 40
0.000000
  0
VERTEX
  8
0
 10
3.900000
 20
-0.394070
 30
-0.163690
 70
 32
 40
0.000000
  0
VERTEX
  8
0
 10
3.900000
 20
-0.327590
 30
-0.225750
 70
 32
 40
0.000000
  0
VERTEX
  8
0
 10
3.900000
 20
-0.254950
 30
-0.274300
 70
 32
 40
0.000000
  0
VERTEX
  8
0
 10
3.900000
 20
-0.176140
 30
-0.309360
 70
 32
 40
0.000000
  0
VERTEX
  8
0
 10
3.900000
 20
-0.091150
 30
-0.330930
 70
 32
 40
0.000000
  0
VERTEX
  8
0
 10
3.900000
 20
0.000000
 30
-0.339000
 70
 32
 40
0.000000
  0
SEQEND
  8
0
  0
POLYLINE
  8
0
 62
4
  6
CONTINUOUS
 66
  1
 70
  8
  0
VERTEX
  8
0
 10
5.200000
 20
0.499000
 30
0.218000
 70
 32
 40
0.000000
  0
VERTEX
  8
0
 10
5.200000
 20
0.487560
 30
0.141840
 70
 32
 40
0.000000
  0
VERTEX
  8
0
 10
5.200000
 20
0.465930
 30
0.070930
 70
 32
 40
0.000000
  0
VERTEX
  8
0
 10
5.200000
 20
0.434120
 30
0.005260
 70
 32
 40
0.000000
  0
VERTEX
  8
0
 10
5.200000
 20
0.392130
 30
-0.055170
 70
 32
 40
0.000000
  0
VERTEX
  8
0
 10
5.200000
 20
0.339960
 30
-0.110350
 70
 32
 40
0.000000
  0
VERTEX
  8
0
 10
5.200000
 20
0.280300
 30
-0.158000
 70
 32
 40
0.000000
  0
VERTEX
  8
0
 10
5.200000
 20
0.216470
 30
-0.195290
 70
 32
 40
0.000000
  0
VERTEX
  8
0
 10
5.200000
 20
0.148480
 30
-0.222220
 70
 32
 40
0.000000
  0
VERTEX
  8
0
 10
5.200000
 20
0.076320
 30
-0.238790
 70
 32
 40
0.000000
  0
VERTEX
  8
0
 10
5.200000
 20
0.000000
 30
-0.245000
 70
 32
 40
0.000000
  0
SEQEND
  8
0
  0
POLYLINE
  8
0
 62
4
  6
CONTINUOUS
 66
  1
 70
  8
  0
VERTEX
  8
0
 10
5.200000
 20
-0.499000
 30
0.218000
 70
 32
 40
0.000000
  0
VERTEX
  8
0
 10
5.200000
 20
-0.487560
 30
0.141840
 70
 32
 40
0.000000
  0
VERTEX
  8
0
 10
5.200000
 20
-0.465930
 30
0.070930
 70
 32
 40
0.000000
  0
VERTEX
  8
0
 10
5.200000
 20
-0.434120
 30
0.005260
 70
 32
 40
0.000000
  0
VERTEX
  8
0
 10
5.200000
 20
-0.392130
 30
-0.055170
 70
 32
 40
0.000000
  0
VERTEX
  8
0
 10
5.200000
 20
-0.339960
 30
-0.110350
 70
 32
 40
0.000000
  0
VERTEX
  8
0
 10
5.200000
 20
-0.280300
 30
-0.158000
 70
 32
 40
0.000000
  0
VERTEX
  8
0
 10
5.200000
 20
-0.216470
 30
-0.195290
 70
 32
 40
0.000000
  0
VERTEX
  8
0
 10
5.200000
 20
-0.148480
 30
-0.222220
 70
 32
 40
0.000000
  0
VERTEX
  8
0
 10
5.200000
 20
-0.076320
 30
-0.238790
 70
 32
 40
0.000000
  0
VERTEX
  8
0
 10
5.200000
 20
0.000000
 30
-0.245000
 70
 32
 40
0.000000
  0
SEQEND
  8
0
  0
POLYLINE
  8
0
 62
4
  6
CONTINUOUS
 66
  1
 70
  8
  0
VERTEX
  8
0
 10
6.500000
 20
0.321000
 30
0.193000
 70
 32
 40
0.000000
  0
VERTEX
  8
0
 10
6.500000
 20
0.300420
 30
0.152070
 70
 32
 40
0.000000
  0
VERTEX
  8
0
 10
6.500000
 20
0.277130
 30
0.115250
 70
 32
 40
0.000000
  0
VERTEX
  8
0
 10
6.500000
 20
0.251140
 30
0.082540
 70
 32
 40
0.000000
  0
VERTEX
  8
0
 10
6.500000
 20
0.222430
 30
0.053930
 70
 32
 40
0.000000
  0
VERTEX
  8
0
 10
6.500000
 20
0.191030
 30
0.029430
 70
 32
 40
0.000000
  0
VERTEX
  8
0
 10
6.500000
 20
0.156910
 30
0.009030
 70
 32
 40
0.000000
  0
VERTEX
  8
0
 10
6.500000
 20
0.120100
 30
-0.007260
 70
 32
 40
0.000000
  0
VERTEX
  8
0
 10
6.500000
 20
0.080910
 30
-0.019320
 70
 32
 40
0.000000
  0
VERTEX
  8
0
 10
6.500000
 20
0.040820
 30
-0.026590
 70
 32
 40
0.000000
  0
VERTEX
  8
0
 10
6.500000
 20
0.000000
 30
-0.029000
 70
 32
 40
0.000000
  0
SEQEND
  8
0
  0
POLYLINE
  8
0
 62
4
  6
CONTINUOUS
 66
  1
 70
  8
  0
VERTEX
  8
0
 10
6.500000
 20
-0.321000
 30
0.193000
 70
 32
 40
0.000000
  0
VERTEX
  8
0
 10
6.500000
 20
-0.300420
 30
0.152070
 70
 32
 40
0.000000
  0
VERTEX
  8
0
 10
6.500000
 20
-0.277130
 30
0.115250
 70
 32
 40
0.000000
  0
VERTEX
  8
0
 10
6.500000
 20
-0.251140
 30
0.082540
 70
 32
 40
0.000000
  0
VERTEX
  8
0
 10
6.500000
 20
-0.222430
 30
0.053930
 70
 32
 40
0.000000
  0
VERTEX
  8
0
 10
6.500000
 20
-0.191030
 30
0.029430
 70
 32
 40
0.000000
  0
VERTEX
  8
0
 10
6.500000
 20
-0.156910
 30
0.009030
 70
 32
 40
0.000000
  0
VERTEX
  8
0
 10
6.500000
 20
-0.120100
 30
-0.007260
 70
 32
 40
0.000000
  0
VERTEX
  8
0
 10
6.500000
 20
-0.080910
 30
-0.019320
 70
 32
 40
0.000000
  0
VERTEX
  8
0
 10
6.500000
 20
-0.040820
 30
-0.026590
 70
 32
 40
0.000000
  0
VERTEX
  8
0
 10
6.500000
 20
0.000000
 30
-0.029000
 70
 32
 40
0.000000
  0
SEQEND
  8
0
  0
POLYLINE
  8
0
 62
3
  6
CONTINUOUS
 66
  1
 70
  8
  0
VERTEX
  8
0
 10
0.000000
 20
0.029000
 30
0.318000
 70
 32
 40
0.000000
  0
VERTEX
  8
0
 10
0.318920
 20
0.104030
 30
0.311870
 70
 32
 40
0.000000
  0
VERTEX
  8
0
 10
0.639110
 20
0.174070
 30
0.305710
 70
 32
 40
0.000000
  0
VERTEX
  8
0
 10
0.960480
 20
0.238840
 30
0.299530
 70
 32
 40
0.000000
  0
VERTEX
  8
0
 10
1.282950
 20
0.298040
 30
0.293330
 70
 32
 40
0.000000
  0
VERTEX
  8
0
 10
1.606430
 20
0.351370
 30
0.287110
 70
 32
 40
0.000000
  0
VERTEX
  8
0
 10
1.930820
 20
0.398560
 30
0.280870
 70
 32
 40
0.000000
  0
VERTEX
  8
0
 10
2.256050
 20
0.439310
 30
0.274610
 70
 32
 40
0.000000
  0
VERTEX
  8
0
 10
2.582030
 20
0.473330
 30
0.268350
 70
 32
 40
0.000000
  0
VERTEX
  8
0
 10
2.908650
 20
0.500390
 30
0.262060
 70
 32
 40
0.000000
  0
VERTEX
  8
0
 10
3.235800
 20
0.520560
 30
0.255770
 70
 32
 40
0.000000
  0
VERTEX
  8
0
 10
3.563330
 20
0.534010
 30
0.249470
 70
 32
 40
0.000000
  0
VERTEX
  8
0
 10
3.891120
 20
0.540900
 30
0.243170
 70
 32
 40
0.000000
  0
VERTEX
  8
0
 10
4.219000
 20
0.541290
 30
0.236870
 70
 32
 40
0.000000
  0
VERTEX
  8
0
 10
4.546800
 20
0.534770
 30
0.230560
 70
 32
 40
0.000000
  0
VERTEX
  8
0
 10
4.874290
 20
0.520820
 30
0.224260
 70
 32
 40
0.000000
  0
VERTEX
  8
0
 10
5.201280
 20
0.498900
 30
0.217980
 70
 32
 40
0.000000
  0
VERTEX
  8
0
 10
5.527550
 20
0.468490
 30
0.211700
 70
 32
 40
0.000000
  0
VERTEX
  8
0
 10
5.852900
 20
0.429050
 30
0.205440
 70
 32
 40
0.000000
  0
VERTEX
  8
0
 10
6.177120
 20
0.380060
 30
0.199210
 70
 32
 40
0.000000
  0
VERTEX
  8
0
 10
6.500000
 20
0.321000
 30
0.193000
 70
 32
 40
0.000000
  0
SEQEND
  8
0
  0
POLYLINE
  8
0
 62
3
  6
CONTINUOUS
 66
  1
 70
  8
  0
VERTEX
  8
0
 10
0.000000
 20
-0.029000
 30
0.318000
 70
 32
 40
0.000000
  0
VERTEX
  8
0
 10
0.318920
 20
-0.104030
 30
0.311870
 70
 32
 40
0.000000
  0
VERTEX
  8
0
 10
0.639110
 20
-0.174070
 30
0.305710
 70
 32
 40
0.000000
  0
VERTEX
  8
0
 10
0.960480
 20
-0.238840
 30
0.299530
 70
 32
 40
0.000000
  0
VERTEX
  8
0
 10
1.282950
 20
-0.298040
 30
0.293330
 70
 32
 40
0.000000
  0
VERTEX
  8
0
 10
1.606430
 20
-0.351370
 30
0.287110
 70
 32
 40
0.000000
  0
VERTEX
  8
0
 10
1.930820
 20
-0.398560
 30
0.280870
 70
 32
 40
0.000000
  0
VERTEX
  8
0
 10
2.256050
 20
-0.439310
 30
0.274610
 70
 32
 40
0.000000
  0
VERTEX
  8
0
 10
2.582030
 20
-0.473330
 30
0.268350
 70
 32
 40
0.000000
  0
VERTEX
  8
0
 10
2.908650
 20
-0.500390
 30
0.262060
 70
 32
 40
0.000000
  0
VERTEX
  8
0
 10
3.235800
 20
-0.520560
 30
0.255770
 70
 32
 40
0.000000
  0
VERTEX
  8
0
 10
3.563330
 20
-0.534010
 30
0.249470
 70
 32
 40
0.000000
  0
VERTEX
  8
0
 10
3.891120
 20
-0.540900
 30
0.243170
 70
 32
 40
0.000000
  0
VERTEX
  8
0
 10
4.219000
 20
-0.541290
 30
0.236870
 70
 32
 40
0.000000
  0
VERTEX
  8
0
 10
4.546800
 20
-0.534770
 30
0.230560
 70
 32
 40
0.000000
  0
VERTEX
  8
0
 10
4.874290
 20
-0.520820
 30
0.224260
 70
 32
 40
0.000000
  0
VERTEX
  8
0
 10
5.201280
 20
-0.498900
 30
0.217980
 70
 32
 40
0.000000
  0
VERTEX
  8
0
 10
5.527550
 20
-0.468490
 30
0.211700
 70
 32
 40
0.000000
  0
VERTEX
  8
0
 10
5.852900
 20
-0.429050
 30
0.205440
 70
 32
 40
0.000000
  0
VERTEX
  8
0
 10
6.177120
 20
-0.380060
 30
0.199210
 70
 32
 40
0.000000
  0
VERTEX
  8
0
 10
6.500000
 20
-0.321000
 30
0.193000
 70
 32
 40
0.000000
  0
SEQEND
  8
0
  0
POLYLINE
  8
0
 62
3
  6
CONTINUOUS
 66
  1
 70
  8
  0
VERTEX
  8
0
 10
0.000000
 20
0.023040
 30
0.203520
 70
 32
 40
0.000000
  0
VERTEX
  8
0
 10
0.318960
 20
0.091420
 30
0.169230
 70
 32
 40
0.000000
  0
VERTEX
  8
0
 10
0.639040
 20
0.158850
 30
0.144210
 70
 32
 40
0.000000
  0
VERTEX
  8
0
 10
0.960200
 20
0.224040
 30
0.126800
 70
 32
 40
0.000000
  0
VERTEX
  8
0
 10
1.282410
 20
0.285720
 30
0.115290
 70
 32
 40
0.000000
  0
VERTEX
  8
0
 10
1.605630
 20
0.342620
 30
0.108010
 70
 32
 40
0.000000
  0
VERTEX
  8
0
 10
1.929830
 20
0.393460
 30
0.103270
 70
 32
 40
0.000000
  0
VERTEX
  8
0
 10
2.254970
 20
0.436960
 30
0.099390
 70
 32
 40
0.000000
  0
VERTEX
  8
0
 10
2.581010
 20
0.471850
 30
0.094680
 70
 32
 40
0.000000
  0
VERTEX
  8
0
 10
2.907910
 20
0.497170
 30
0.087890
 70
 32
 40
0.000000
  0
VERTEX
  8
0
 10
3.235460
 20
0.513540
 30
0.079880
 70
 32
 40
0.000000
  0
VERTEX
  8
0
 10
3.563450
 20
0.522010
 30
0.072110
 70
 32
 40
0.000000
  0
VERTEX
  8
0
 10
3.891660
 20
0.523650
 30
0.066060
 70
 32
 40
0.000000
  0
VERTEX
  8
0
 10
4.219850
 20
0.519270
 30
0.062930
 70
 32
 40
0.000000
  0
VERTEX
  8
0
 10
4.547840
 20
0.508570
 30
0.062830
 70
 32
 40
0.000000
  0
VERTEX
  8
0
 10
4.875410
 20
0.490920
 30
0.065580
 70
 32
 40
0.000000
  0
VERTEX
  8
0
 10
5.202370
 20
0.465720
 30
0.070980
 70
 32
 40
0.000000
  0
VERTEX
  8
0
 10
5.528510
 20
0.432350
 30
0.078830
 70
 32
 40
0.000000
  0
VERTEX
  8
0
 10
5.853630
 20
0.390210
 30
0.088960
 70
 32
 40
0.000000
  0
VERTEX
  8
0
 10
6.177530
 20
0.338670
 30
0.101160
 70
 32
 40
0.000000
  0
VERTEX
  8
0
 10
6.500000
 20
0.277130
 30
0.115250
 70
 32
 40
0.000000
  0
SEQEND
  8
0
  0
POLYLINE
  8
0
 62
3
  6
CONTINUOUS
 66
  1
 70
  8
  0
VERTEX
  8
0
 10
0.000000
 20
-0.023040
 30
0.203520
 70
 32
 40
0.000000
  0
VERTEX
  8
0
 10
0.318960
 20
-0.091420
 30
0.169230
 70
 32
 40
0.000000
  0
VERTEX
  8
0
 10
0.639040
 20
-0.158850
 30
0.144210
 70
 32
 40
0.000000
  0
VERTEX
  8
0
 10
0.960200
 20
-0.224040
 30
0.126800
 70
 32
 40
0.000000
  0
VERTEX
  8
0
 10
1.282410
 20
-0.285720
 30
0.115290
 70
 32
 40
0.000000
  0
VERTEX
  8
0
 10
1.605630
 20
-0.342620
 30
0.108010
 70
 32
 40
0.000000
  0
VERTEX
  8
0
 10
1.929830
 20
-0.393460
 30
0.103270
 70
 32
 40
0.000000
  0
VERTEX
  8
0
 10
2.254970
 20
-0.436960
 30
0.099390
 70
 32
 40
0.000000
  0
VERTEX
  8
0
 10
2.581010
 20
-0.471850
 30
0.094680
 70
 32
 40
0.000000
  0
VERTEX
  8
0
 10
2.907910
 20
-0.497170
 30
0.087890
 70
 32
 40
0.000000
  0
VERTEX
  8
0
 10
3.235460
 20
-0.513540
 30
0.079880
 70
 32
 40
0.000000
  0
VERTEX
  8
0
 10
3.563450
 20
-0.522010
 30
0.072110
 70
 32
 40
0.000000
  0
VERTEX
  8
0
 10
3.891660
 20
-0.523650
 30
0.066060
 70
 32
 40
0.000000
  0
VERTEX
  8
0
 10
4.219850
 20
-0.519270
 30
0.062930
 70
 32
 40
0.000000
  0
VERTEX
  8
0
 10
4.547840
 20
-0.508570
 30
0.062830
 70
 32
 40
0.000000
  0
VERTEX
  8
0
 10
4.875410
 20
-0.490920
 30
0.065580
 70
 32
 40
0.000000
  0
VERTEX
  8
0
 10
5.202370
 20
-0.465720
 30
0.070980
 70
 32
 40
0.000000
  0
VERTEX
  8
0
 10
5.528510
 20
-0.432350
 30
0.078830
 70
 32
 40
0.000000
  0
VERTEX
  8
0
 10
5.853630
 20
-0.390210
 30
0.088960
 70
 32
 40
0.000000
  0
VERTEX
  8
0
 10
6.177530
 20
-0.338670
 30
0.101160
 70
 32
 40
0.000000
  0
VERTEX
  8
0
 10
6.500000
 20
-0.277130
 30
0.115250
 70
 32
 40
0.000000
  0
SEQEND
  8
0
  0
POLYLINE
  8
0
 62
3
  6
CONTINUOUS
 66
  1
 70
  8
  0
VERTEX
  8
0
 10
0.000000
 20
0.017160
 30
0.114480
 70
 32
 40
0.000000
  0
VERTEX
  8
0
 10
0.318990
 20
0.076160
 30
0.064540
 70
 32
 40
0.000000
  0
VERTEX
  8
0
 10
0.639270
 20
0.135670
 30
0.026250
 70
 32
 40
0.000000
  0
VERTEX
  8
0
 10
0.960750
 20
0.194150
 30
-0.002280
 70
 32
 40
0.000000
  0
VERTEX
  8
0
 10
1.283370
 20
0.250060
 30
-0.022920
 70
 32
 40
0.000000
  0
VERTEX
  8
0
 10
1.607030
 20
0.301860
 30
-0.037540
 70
 32
 40
0.000000
  0
VERTEX
  8
0
 10
1.931670
 20
0.348000
 30
-0.048040
 70
 32
 40
0.000000
  0
VERTEX
  8
0
 10
2.257210
 20
0.386960
 30
-0.056270
 70
 32
 40
0.000000
  0
VERTEX
  8
0
 10
2.583570
 20
0.417180
 30
-0.064130
 70
 32
 40
0.000000
  0
VERTEX
  8
0
 10
2.910660
 20
0.437550
 30
-0.072960
 70
 32
 40
0.000000
  0
VERTEX
  8
0
 10
3.238290
 20
0.449000
 30
-0.081710
 70
 32
 40
0.000000
  0
VERTEX
  8
0
 10
3.566250
 20
0.453020
 30
-0.088620
 70
 32
 40
0.000000
  0
VERTEX
  8
0
 10
3.894350
 20
0.451110
 30
-0.091940
 70
 32
 40
0.000000
  0
VERTEX
  8
0
 10
4.222370
 20
0.444430
 30
-0.090210
 70
 32
 40
0.000000
  0
VERTEX
  8
0
 10
4.550110
 20
0.432730
 30
-0.083320
 70
 32
 40
0.000000
  0
VERTEX
  8
0
 10
4.877390
 20
0.415400
 30
-0.071490
 70
 32
 40
0.000000
  0
VERTEX
  8
0
 10
5.204010
 20
0.391800
 30
-0.054940
 70
 32
 40
0.000000
  0
VERTEX
  8
0
 10
5.529770
 20
0.361330
 30
-0.033900
 70
 32
 40
0.000000
  0
VERTEX
  8
0
 10
5.854490
 20
0.323360
 30
-0.008590
 70
 32
 40
0.000000
  0
VERTEX
  8
0
 10
6.177960
 20
0.277270
 30
0.020760
 70
 32
 40
0.000000
  0
VERTEX
  8
0
 10
6.500000
 20
0.222430
 30
0.053930
 70
 32
 40
0.000000
  0
SEQEND
  8
0
  0
POLYLINE
  8
0
 62
3
  6
CONTINUOUS
 66
  1
 70
  8
  0
VERTEX
  8
0
 10
0.000000
 20
-0.017160
 30
0.114480
 70
 32
 40
0.000000
  0
VERTEX
  8
0
 10
0.318990
 20
-0.076160
 30
0.064540
 70
 32
 40
0.000000
  0
VERTEX
  8
0
 10
0.639270
 20
-0.135670
 30
0.026250
 70
 32
 40
0.000000
  0
VERTEX
  8
0
 10
0.960750
 20
-0.194150
 30
-0.002280
 70
 32
 40
0.000000
  0
VERTEX
  8
0
 10
1.283370
 20
-0.250060
 30
-0.022920
 70
 32
 40
0.000000
  0
VERTEX
  8
0
 10
1.607030
 20
-0.301860
 30
-0.037540
 70
 32
 40
0.000000
  0
VERTEX
  8
0
 10
1.931670
 20
-0.348000
 30
-0.048040
 70
 32
 40
0.000000
  0
VERTEX
  8
0
 10
2.257210
 20
-0.386960
 30
-0.056270
 70
 32
 40
0.000000
  0
VERTEX
  8
0
 10
2.583570
 20
-0.417180
 30
-0.064130
 70
 32
 40
0.000000
  0
VERTEX
  8
0
 10
2.910660
 20
-0.437550
 30
-0.072960
 70
 32
 40
0.000000
  0
VERTEX
  8
0
 10
3.238290
 20
-0.449000
 30
-0.081710
 70
 32
 40
0.000000
  0
VERTEX
  8
0
 10
3.566250
 20
-0.453020
 30
-0.088620
 70
 32
 40
0.000000
  0
VERTEX
  8
0
 10
3.894350
 20
-0.451110
 30
-0.091940
 70
 32
 40
0.000000
  0
VERTEX
  8
0
 10
4.222370
 20
-0.444430
 30
-0.090210
 70
 32
 40
0.000000
  0
VERTEX
  8
0
 10
4.550110
 20
-0.432730
 30
-0.083320
 70
 32
 40
0.000000
  0
VERTEX
  8
0
 10
4.877390
 20
-0.415400
 30
-0.071490
 70
 32
 40
0.000000
  0
VERTEX
  8
0
 10
5.204010
 20
-0.391800
 30
-0.054940
 70
 32
 40
0.000000
  0
VERTEX
  8
0
 10
5.529770
 20
-0.361330
 30
-0.033900
 70
 32
 40
0.000000
  0
VERTEX
  8
0
 10
5.854490
 20
-0.323360
 30
-0.008590
 70
 32
 40
0.000000
  0
VERTEX
  8
0
 10
6.177960
 20
-0.277270
 30
0.020760
 70
 32
 40
0.000000
  0
VERTEX
  8
0
 10
6.500000
 20
-0.222430
 30
0.053930
 70
 32
 40
0.000000
  0
SEQEND
  8
0
  0
POLYLINE
  8
0
 62
3
  6
CONTINUOUS
 66
  1
 70
  8
  0
VERTEX
  8
0
 10
0.000000
 20
0.011360
 30
0.050880
 70
 32
 40
0.000000
  0
VERTEX
  8
0
 10
0.319730
 20
0.058160
 30
-0.002850
 70
 32
 40
0.000000
  0
VERTEX
  8
0
 10
0.640790
 20
0.104400
 30
-0.049070
 70
 32
 40
0.000000
  0
VERTEX
  8
0
 10
0.963050
 20
0.149020
 30
-0.088410
 70
 32
 40
0.000000
  0
VERTEX
  8
0
 10
1.286420
 20
0.190960
 30
-0.121540
 70
 32
 40
0.000000
  0
VERTEX
  8
0
 10
1.610760
 20
0.229160
 30
-0.149090
 70
 32
 40
0.000000
  0
VERTEX
  8
0
 10
1.935970
 20
0.262570
 30
-0.171740
 70
 32
 40
0.000000
  0
VERTEX
  8
0
 10
2.261940
 20
0.290130
 30
-0.190110
 70
 32
 40
0.000000
  0
VERTEX
  8
0
 10
2.588550
 20
0.310790
 30
-0.204880
 70
 32
 40
0.000000
  0
VERTEX
  8
0
 10
2.915670
 20
0.323830
 30
-0.216460
 70
 32
 40
0.000000
  0
VERTEX
  8
0
 10
3.243160
 20
0.330110
 30
-0.224330
 70
 32
 40
0.000000
  0
VERTEX
  8
0
 10
3.570840
 20
0.330940
 30
-0.227700
 70
 32
 40
0.000000
  0
VERTEX
  8
0
 10
3.898540
 20
0.327620
 30
-0.225770
 70
 32
 40
0.000000
  0
VERTEX
  8
0
 10
4.226110
 20
0.321130
 30
-0.217860
 70
 32
 40
0.000000
  0
VERTEX
  8
0
 10
4.553350
 20
0.311330
 30
-0.203840
 70
 32
 40
0.000000
  0
VERTEX
  8
0
 10
4.880100
 20
0.297750
 30
-0.183710
 70
 32
 40
0.000000
  0
VERTEX
  8
0
 10
5.206160
 20
0.279920
 30
-0.157440
 70
 32
 40
0.000000
  0
VERTEX
  8
0
 10
5.531370
 20
0.257390
 30
-0.125040
 70
 32
 40
0.000000
  0
VERTEX
  8
0
 10
5.855530
 20
0.229680
 30
-0.086500
 70
 32
 40
0.000000
  0
VERTEX
  8
0
 10
6.178470
 20
0.196350
 30
-0.041810
 70
 32
 40
0.000000
  0
VERTEX
  8
0
 10
6.500000
 20
0.156910
 30
0.009030
 70
 32
 40
0.000000
  0
SEQEND
  8
0
  0
POLYLINE
  8
0
 62
3
  6
CONTINUOUS
 66
  1
 70
  8
  0
VERTEX
  8
0
 10
0.000000
 20
-0.011360
 30
0.050880
 70
 32
 40
0.000000
  0
VERTEX
  8
0
 10
0.319730
 20
-0.058160
 30
-0.002850
 70
 32
 40
0.000000
  0
VERTEX
  8
0
 10
0.640790
 20
-0.104400
 30
-0.049070
 70
 32
 40
0.000000
  0
VERTEX
  8
0
 10
0.963050
 20
-0.149020
 30
-0.088410
 70
 32
 40
0.000000
  0
VERTEX
  8
0
 10
1.286420
 20
-0.190960
 30
-0.121540
 70
 32
 40
0.000000
  0
VERTEX
  8
0
 10
1.610760
 20
-0.229160
 30
-0.149090
 70
 32
 40
0.000000
  0
VERTEX
  8
0
 10
1.935970
 20
-0.262570
 30
-0.171740
 70
 32
 40
0.000000
  0
VERTEX
  8
0
 10
2.261940
 20
-0.290130
 30
-0.190110
 70
 32
 40
0.000000
  0
VERTEX
  8
0
 10
2.588550
 20
-0.310790
 30
-0.204880
 70
 32
 40
0.000000
  0
VERTEX
  8
0
 10
2.915670
 20
-0.323830
 30
-0.216460
 70
 32
 40
0.000000
  0
VERTEX
  8
0
 10
3.243160
 20
-0.330110
 30
-0.224330
 70
 32
 40
0.000000
  0
VERTEX
  8
0
 10
3.570840
 20
-0.330940
 30
-0.227700
 70
 32
 40
0.000000
  0
VERTEX
  8
0
 10
3.898540
 20
-0.327620
 30
-0.225770
 70
 32
 40
0.000000
  0
VERTEX
  8
0
 10
4.226110
 20
-0.321130
 30
-0.217860
 70
 32
 40
0.000000
  0
VERTEX
  8
0
 10
4.553350
 20
-0.311330
 30
-0.203840
 70
 32
 40
0.000000
  0
VERTEX
  8
0
 10
4.880100
 20
-0.297750
 30
-0.183710
 70
 32
 40
0.000000
  0
VERTEX
  8
0
 10
5.206160
 20
-0.279920
 30
-0.157440
 70
 32
 40
0.000000
  0
VERTEX
  8
0
 10
5.531370
 20
-0.257390
 30
-0.125040
 70
 32
 40
0.000000
  0
VERTEX
  8
0
 10
5.855530
 20
-0.229680
 30
-0.086500
 70
 32
 40
0.000000
  0
VERTEX
  8
0
 10
6.178470
 20
-0.196350
 30
-0.041810
 70
 32
 40
0.000000
  0
VERTEX
  8
0
 10
6.500000
 20
-0.156910
 30
0.009030
 70
 32
 40
0.000000
  0
SEQEND
  8
0
  0
POLYLINE
  8
0
 62
3
  6
CONTINUOUS
 66
  1
 70
  8
  0
VERTEX
  8
0
 10
0.000000
 20
0.005640
 30
0.012720
 70
 32
 40
0.000000
  0
VERTEX
  8
0
 10
0.321290
 20
0.033280
 30
-0.041880
 70
 32
 40
0.000000
  0
VERTEX
  8
0
 10
0.643550
 20
0.059820
 30
-0.092630
 70
 32
 40
0.000000
  0
VERTEX
  8
0
 10
0.966700
 20
0.084790
 30
-0.139150
 70
 32
 40
0.000000
  0
VERTEX
  8
0
 10
1.290680
 20
0.107740
 30
-0.181070
 70
 32
 40
0.000000
  0
VERTEX
  8
0
 10
1.615410
 20
0.128210
 30
-0.217990
 70
 32
 40
0.000000
  0
VERTEX
  8
0
 10
1.940820
 20
0.145750
 30
-0.249530
 70
 32
 40
0.000000
  0
VERTEX
  8
0
 10
2.266830
 20
0.159900
 30
-0.275310
 70
 32
 40
0.000000
  0
VERTEX
  8
0
 10
2.593370
 20
0.170200
 30
-0.294940
 70
 32
 40
0.000000
  0
VERTEX
  8
0
 10
2.920350
 20
0.176380
 30
-0.308110
 70
 32
 40
0.000000
  0
VERTEX
  8
0
 10
3.247620
 20
0.178950
 30
-0.314840
 70
 32
 40
0.000000
  0
VERTEX
  8
0
 10
3.575030
 20
0.178630
 30
-0.315200
 70
 32
 40
0.000000
  0
VERTEX
  8
0
 10
3.902410
 20
0.176110
 30
-0.309300
 70
 32
 40
0.000000
  0
VERTEX
  8
0
 10
4.229590
 20
0.171960
 30
-0.297160
 70
 32
 40
0.000000
  0
VERTEX
  8
0
 10
4.556420
 20
0.166090
 30
-0.278610
 70
 32
 40
0.000000
  0
VERTEX
  8
0
 10
4.882700
 20
0.158250
 30
-0.253410
 70
 32
 40
0.000000
  0
VERTEX
  8
0
 10
5.208280
 20
0.148190
 30
-0.221310
 70
 32
 40
0.000000
  0
VERTEX
  8
0
 10
5.532970
 20
0.135670
 30
-0.182090
 70
 32
 40
0.000000
  0
VERTEX
  8
0
 10
5.856600
 20
0.120450
 30
-0.135510
 70
 32
 40
0.000000
  0
VERTEX
  8
0
 10
6.179000
 20
0.102280
 30
-0.081330
 70
 32
 40
0.000000
  0
VERTEX
  8
0
 10
6.500000
 20
0.080910
 30
-0.019320
 70
 32
 40
0.000000
  0
SEQEND
  8
0
  0
POLYLINE
  8
0
 62
3
  6
CONTINUOUS
 66
  1
 70
  8
  0
VERTEX
  8
0
 10
0.000000
 20
-0.005640
 30
0.012720
 70
 32
 40
0.000000
  0
VERTEX
  8
0
 10
0.321290
 20
-0.033280
 30
-0.041880
 70
 32
 40
0.000000
  0
VERTEX
  8
0
 10
0.643550
 20
-0.059820
 30
-0.092630
 70
 32
 40
0.000000
  0
VERTEX
  8
0
 10
0.966700
 20
-0.084790
 30
-0.139150
 70
 32
 40
0.000000
  0
VERTEX
  8
0
 10
1.290680
 20
-0.107740
 30
-0.181070
 70
 32
 40
0.000000
  0
VERTEX
  8
0
 10
1.615410
 20
-0.128210
 30
-0.217990
 70
 32
 40
0.000000
  0
VERTEX
  8
0
 10
1.940820
 20
-0.145750
 30
-0.249530
 70
 32
 40
0.000000
  0
VERTEX
  8
0
 10
2.266830
 20
-0.159900
 30
-0.275310
 70
 32
 40
0.000000
  0
VERTEX
  8
0
 10
2.593370
 20
-0.170200
 30
-0.294940
 70
 32
 40
0.000000
  0
VERTEX
  8
0
 10
2.920350
 20
-0.176380
 30
-0.308110
 70
 32
 40
0.000000
  0
VERTEX
  8
0
 10
3.247620
 20
-0.178950
 30
-0.314840
 70
 32
 40
0.000000
  0
VERTEX
  8
0
 10
3.575030
 20
-0.178630
 30
-0.315200
 70
 32
 40
0.000000
  0
VERTEX
  8
0
 10
3.902410
 20
-0.176110
 30
-0.309300
 70
 32
 40
0.000000
  0
VERTEX
  8
0
 10
4.229590
 20
-0.171960
 30
-0.297160
 70
 32
 40
0.000000
  0
VERTEX
  8
0
 10
4.556420
 20
-0.166090
 30
-0.278610
 70
 32
 40
0.000000
  0
VERTEX
  8
0
 10
4.882700
 20
-0.158250
 30
-0.253410
 70
 32
 40
0.000000
  0
VERTEX
  8
0
 10
5.208280
 20
-0.148190
 30
-0.221310
 70
 32
 40
0.000000
  0
VERTEX
  8
0
 10
5.532970
 20
-0.135670
 30
-0.182090
 70
 32
 40
0.000000
  0
VERTEX
  8
0
 10
5.856600
 20
-0.120450
 30
-0.135510
 70
 32
 40
0.000000
  0
VERTEX
  8
0
 10
6.179000
 20
-0.102280
 30
-0.081330
 70
 32
 40
0.000000
  0
VERTEX
  8
0
 10
6.500000
 20
-0.080910
 30
-0.019320
 70
 32
 40
0.000000
  0
SEQEND
  8
0
  0
POLYLINE
  8
0
 62
3
  6
CONTINUOUS
 66
  1
 70
  8
  0
VERTEX
  8
0
 10
0.000000
 20
0.000000
 30
0.000000
 70
 32
 40
0.000000
  0
VERTEX
  8
0
 10
0.322220
 20
0.000000
 30
-0.054890
 70
 32
 40
0.000000
  0
VERTEX
  8
0
 10
0.645160
 20
0.000000
 30
-0.107190
 70
 32
 40
0.000000
  0
VERTEX
  8
0
 10
0.968770
 20
0.000000
 30
-0.156160
 70
 32
 40
0.000000
  0
VERTEX
  8
0
 10
1.293010
 20
0.000000
 30
-0.201080
 70
 32
 40
0.000000
  0
VERTEX
  8
0
 10
1.617860
 20
0.000000
 30
-0.241230
 70
 32
 40
0.000000
  0
VERTEX
  8
0
 10
1.943260
 20
0.000000
 30
-0.275870
 70
 32
 40
0.000000
  0
VERTEX
  8
0
 10
2.269200
 20
0.000000
 30
-0.304290
 70
 32
 40
0.000000
  0
VERTEX
  8
0
 10
2.595620
 20
0.000000
 30
-0.325760
 70
 32
 40
0.000000
  0
VERTEX
  8
0
 10
2.922470
 20
0.000000
 30
-0.339720
 70
 32
 40
0.000000
  0
VERTEX
  8
0
 10
3.249610
 20
0.000000
 30
-0.346340
 70
 32
 40
0.000000
  0
VERTEX
  8
0
 10
3.576880
 20
0.000000
 30
-0.345940
 70
 32
 40
0.000000
  0
VERTEX
  8
0
 10
3.904100
 20
0.000000
 30
-0.338870
 70
 32
 40
0.000000
  0
VERTEX
  8
0
 10
4.231120
 20
0.000000
 30
-0.325370
 70
 32
 40
0.000000
  0
VERTEX
  8
0
 10
4.557760
 20
0.000000
 30
-0.305230
 70
 32
 40
0.000000
  0
VERTEX
  8
0
 10
4.883840
 20
0.000000
 30
-0.278190
 70
 32
 40
0.000000
  0
VERTEX
  8
0
 10
5.209200
 20
0.000000
 30
-0.243930
 70
 32
 40
0.000000
  0
VERTEX
  8
0
 10
5.533670
 20
0.000000
 30
-0.202170
 70
 32
 40
0.000000
  0
VERTEX
  8
0
 10
5.857080
 20
0.000000
 30
-0.152620
 70
 32
 40
0.000000
  0
VERTEX
  8
0
 10
6.179240
 20
0.000000
 30
-0.095000
 70
 32
 40
0.000000
  0
VERTEX
  8
0
 10
6.500000
 20
0.000000
 30
-0.029000
 70
 32
 40
0.000000
  0
SEQEND
  8
0
  0
POLYLINE
  8
0
 62
3
  6
CONTINUOUS
 66
  1
 70
  8
  0
VERTEX
  8
0
 10
0.000000
 20
0.000000
 30
0.000000
 70
 32
 40
0.000000
  0
VERTEX
  8
0
 10
0.322220
 20
0.000000
 30
-0.054890
 70
 32
 40
0.000000
  0
VERTEX
  8
0
 10
0.645160
 20
0.000000
 30
-0.107190
 70
 32
 40
0.000000
  0
VERTEX
  8
0
 10
0.968770
 20
0.000000
 30
-0.156160
 70
 32
 40
0.000000
  0
VERTEX
  8
0
 10
1.293010
 20
0.000000
 30
-0.201080
 70
 32
 40
0.000000
  0
VERTEX
  8
0
 10
1.617860
 20
0.000000
 30
-0.241230
 70
 32
 40
0.000000
  0
VERTEX
  8
0
 10
1.943260
 20
0.000000
 30
-0.275870
 70
 32
 40
0.000000
  0
VERTEX
  8
0
 10
2.269200
 20
0.000000
 30
-0.304290
 70
 32
 40
0.000000
  0
VERTEX
  8
0
 10
2.595620
 20
0.000000
 30
-0.325760
 70
 32
 40
0.000000
  0
VERTEX
  8
0
 10
2.922470
 20
0.000000
 30
-0.339720
 70
 32
 40
0.000000
  0
VERTEX
  8
0
 10
3.249610
 20
0.000000
 30
-0.346340
 70
 32
 40
0.000000
  0
VERTEX
  8
0
 10
3.576880
 20
0.000000
 30
-0.345940
 70
 32
 40
0.000000
  0
VERTEX
  8
0
 10
3.904100
 20
0.000000
 30
-0.338870
 70
 32
 40
0.000000
  0
VERTEX
  8
0
 10
4.231120
 20
0.000000
 30
-0.325370
 70
 32
 40
0.000000
  0
VERTEX
  8
0
 10
4.557760
 20
0.000000
 30
-0.305230
 70
 32
 40
0.000000
  0
VERTEX
  8
0
 10
4.883840
 20
0.000000
 30
-0.278190
 70
 32
 40
0.000000
  0
VERTEX
  8
0
 10
5.209200
 20
0.000000
 30
-0.243930
 70
 32
 40
0.000000
  0
VERTEX
  8
0
 10
5.533670
 20
0.000000
 30
-0.202170
 70
 32
 40
0.000000
  0
VERTEX
  8
0
 10
5.857080
 20
0.000000
 30
-0.152620
 70
 32
 40
0.000000
  0
VERTEX
  8
0
 10
6.179240
 20
0.000000
 30
-0.095000
 70
 32
 40
0.000000
  0
VERTEX
  8
0
 10
6.500000
 20
0.000000
 30
-0.029000
 70
 32
 40
0.000000
  0
SEQEND
  8
0
  0
POLYLINE
  8
0
 62
4
  6
CONTINUOUS
 66
  1
 70
  8
  0
VERTEX
  8
0
 10
0.000000
 20
0.000000
 30
0.700000
 70
 32
 40
0.000000
  0
VERTEX
  8
0
 10
0.000000
 20
0.005510
 30
0.696180
 70
 32
 40
0.000000
  0
VERTEX
  8
0
 10
0.000000
 20
0.010440
 30
0.684720
 70
 32
 40
0.000000
  0
VERTEX
  8
0
 10
0.000000
 20
0.014790
 30
0.665620
 70
 32
 40
0.000000
  0
VERTEX
  8
0
 10
0.000000
 20
0.018560
 30
0.638880
 70
 32
 40
0.000000
  0
VERTEX
  8
0
 10
0.000000
 20
0.021750
 30
0.604500
 70
 32
 40
0.000000
  0
VERTEX
  8
0
 10
0.000000
 20
0.024360
 30
0.562480
 70
 32
 40
0.000000
  0
VERTEX
  8
0
 10
0.000000
 20
0.026390
 30
0.512820
 70
 32
 40
0.000000
  0
VERTEX
  8
0
 10
0.000000
 20
0.027840
 30
0.455520
 70
 32
 40
0.000000
  0
VERTEX
  8
0
 10
0.000000
 20
0.028710
 30
0.390580
 70
 32
 40
0.000000
  0
VERTEX
  8
0
 10
0.000000
 20
0.029000
 30
0.318000
 70
 32
 40
0.000000
  0
SEQEND
  8
0
  0
POLYLINE
  8
0
 62
4
  6
CONTINUOUS
 66
  1
 70
  8
  0
VERTEX
  8
0
 10
0.000000
 20
0.000000
 30
0.700000
 70
 32
 40
0.000000
  0
VERTEX
  8
0
 10
0.000000
 20
-0.005510
 30
0.696180
 70
 32
 40
0.000000
  0
VERTEX
  8
0
 10
0.000000
 20
-0.010440
 30
0.684720
 70
 32
 40
0.000000
  0
VERTEX
  8
0
 10
0.000000
 20
-0.014790
 30
0.665620
 70
 32
 40
0.000000
  0
VERTEX
  8
0
 10
0.000000
 20
-0.018560
 30
0.638880
 70
 32
 40
0.000000
  0
VERTEX
  8
0
 10
0.000000
 20
-0.021750
 30
0.604500
 70
 32
 40
0.000000
  0
VERTEX
  8
0
 10
0.000000
 20
-0.024360
 30
0.562480
 70
 32
 40
0.000000
  0
VERTEX
  8
0
 10
0.000000
 20
-0.026390
 30
0.512820
 70
 32
 40
0.000000
  0
VERTEX
  8
0
 10
0.000000
 20
-0.027840
 30
0.455520
 70
 32
 40
0.000000
  0
VERTEX
  8
0
 10
0.000000
 20
-0.028710
 30
0.390580
 70
 32
 40
0.000000
  0
VERTEX
  8
0
 10
0.000000
 20
-0.029000
 30
0.318000
 70
 32
 40
0.000000
  0
SEQEND
  8
0
  0
POLYLINE
  8
0
 62
4
  6
CONTINUOUS
 66
  1
 70
  8
  0
VERTEX
  8
0
 10
1.300000
 20
0.100000
 30
0.569000
 70
 32
 40
0.000000
  0
VERTEX
  8
0
 10
1.300000
 20
0.138190
 30
0.566240
 70
 32
 40
0.000000
  0
VERTEX
  8
0
 10
1.300000
 20
0.172360
 30
0.557960
 70
 32
 40
0.000000
  0
VERTEX
  8
0
 10
1.300000
 20
0.202510
 30
0.544160
 70
 32
 40
0.000000
  0
VERTEX
  8
0
 10
1.300000
 20
0.228640
 30
0.524840
 70
 32
 40
0.000000
  0
VERTEX
  8
0
 10
1.300000
 20
0.250750
 30
0.500000
 70
 32
 40
0.000000
  0
VERTEX
  8
0
 10
1.300000
 20
0.268840
 30
0.469640
 70
 32
 40
0.000000
  0
VERTEX
  8
0
 10
1.300000
 20
0.282910
 30
0.433760
 70
 32
 40
0.000000
  0
VERTEX
  8
0
 10
1.300000
 20
0.292960
 30
0.392360
 70
 32
 40
0.000000
  0
VERTEX
  8
0
 10
1.300000
 20
0.298990
 30
0.345440
 70
 32
 40
0.000000
  0
VERTEX
  8
0
 10
1.300000
 20
0.301000
 30
0.293000
 70
 32
 40
0.000000
  0
SEQEND
  8
0
  0
POLYLINE
  8
0
 62
4
  6
CONTINUOUS
 66
  1
 70
  8
  0
VERTEX
  8
0
 10
1.300000
 20
-0.100000
 30
0.569000
 70
 32
 40
0.000000
  0
VERTEX
  8
0
 10
1.300000
 20
-0.138190
 30
0.566240
 70
 32
 40
0.000000
  0
VERTEX
  8
0
 10
1.300000
 20
-0.172360
 30
0.557960
 70
 32
 40
0.000000
  0
VERTEX
  8
0
 10
1.300000
 20
-0.202510
 30
0.544160
 70
 32
 40
0.000000
  0
VERTEX
  8
0
 10
1.300000
 20
-0.228640
 30
0.524840
 70
 32
 40
0.000000
  0
VERTEX
  8
0
 10
1.300000
 20
-0.250750
 30
0.500000
 70
 32
 40
0.000000
  0
VERTEX
  8
0
 10
1.300000
 20
-0.268840
 30
0.469640
 70
 32
 40
0.000000
  0
VERTEX
  8
0
 10
1.300000
 20
-0.282910
 30
0.433760
 70
 32
 40
0.000000
  0
VERTEX
  8
0
 10
1.300000
 20
-0.292960
 30
0.392360
 70
 32
 40
0.000000
  0
VERTEX
  8
0
 10
1.300000
 20
-0.298990
 30
0.345440
 70
 32
 40
0.000000
  0
VERTEX
  8
0
 10
1.300000
 20
-0.301000
 30
0.293000
 70
 32
 40
0.000000
  0
SEQEND
  8
0
  0
POLYLINE
  8
0
 62
4
  6
CONTINUOUS
 66
  1
 70
  8
  0
VERTEX
  8
0
 10
2.600000
 20
0.305000
 30
0.438000
 70
 32
 40
0.000000
  0
VERTEX
  8
0
 10
2.600000
 20
0.337300
 30
0.436300
 70
 32
 40
0.000000
  0
VERTEX
  8
0
 10
2.600000
 20
0.366200
 30
0.431200
 70
 32
 40
0.000000
  0
VERTEX
  8
0
 10
2.600000
 20
0.391700
 30
0.422700
 70
 32
 40
0.000000
  0
VERTEX
  8
0
 10
2.600000
 20
0.413800
 30
0.410800
 70
 32
 40
0.000000
  0
VERTEX
  8
0
 10
2.600000
 20
0.432500
 30
0.395500
 70
 32
 40
0.000000
  0
VERTEX
  8
0
 10
2.600000
 20
0.447800
 30
0.376800
 70
 32
 40
0.000000
  0
VERTEX
  8
0
 10
2.600000
 20
0.459700
 30
0.354700
 70
 32
 40
0.000000
  0
VERTEX
  8
0
 10
2.600000
 20
0.468200
 30
0.329200
 70
 32
 40
0.000000
  0
VERTEX
  8
0
 10
2.600000
 20
0.473300
 30
0.300300
 70
 32
 40
0.000000
  0
VERTEX
  8
0
 10
2.600000
 20
0.475000
 30
0.268000
 70
 32
 40
0.000000
  0
SEQEND
  8
0
  0
POLYLINE
  8
0
 62
4
  6
CONTINUOUS
 66
  1
 70
  8
  0
VERTEX
  8
0
 10
2.600000
 20
-0.305000
 30
0.438000
 70
 32
 40
0.000000
  0
VERTEX
  8
0
 10
2.600000
 20
-0.337300
 30
0.436300
 70
 32
 40
0.000000
  0
VERTEX
  8
0
 10
2.600000
 20
-0.366200
 30
0.431200
 70
 32
 40
0.000000
  0
VERTEX
  8
0
 10
2.600000
 20
-0.391700
 30
0.422700
 70
 32
 40
0.000000
  0
VERTEX
  8
0
 10
2.600000
 20
-0.413800
 30
0.410800
 70
 32
 40
0.000000
  0
VERTEX
  8
0
 10
2.600000
 20
-0.432500
 30
0.395500
 70
 32
 40
0.000000
  0
VERTEX
  8
0
 10
2.600000
 20
-0.447800
 30
0.376800
 70
 32
 40
0.000000
  0
VERTEX
  8
0
 10
2.600000
 20
-0.459700
 30
0.354700
 70
 32
 40
0.000000
  0
VERTEX
  8
0
 10
2.600000
 20
-0.468200
 30
0.329200
 70
 32
 40
0.000000
  0
VERTEX
  8
0
 10
2.600000
 20
-0.473300
 30
0.300300
 70
 32
 40
0.000000
  0
VERTEX
  8
0
 10
2.600000
 20
-0.475000
 30
0.268000
 70
 32
 40
0.000000
  0
SEQEND
  8
0
  0
POLYLINE
  8
0
 62
4
  6
CONTINUOUS
 66
  1
 70
  8
  0
VERTEX
  8
0
 10
3.900000
 20
0.438000
 30
0.346000
 70
 32
 40
0.000000
  0
VERTEX
  8
0
 10
3.900000
 20
0.457570
 30
0.344970
 70
 32
 40
0.000000
  0
VERTEX
  8
0
 10
3.900000
 20
0.475080
 30
0.341880
 70
 32
 40
0.000000
  0
VERTEX
  8
0
 10
3.900000
 20
0.490530
 30
0.336730
 70
 32
 40
0.000000
  0
VERTEX
  8
0
 10
3.900000
 20
0.503920
 30
0.329520
 70
 32
 40
0.000000
  0
VERTEX
  8
0
 10
3.900000
 20
0.515250
 30
0.320250
 70
 32
 40
0.000000
  0
VERTEX
  8
0
 10
3.900000
 20
0.524520
 30
0.308920
 70
 32
 40
0.000000
  0
VERTEX
  8
0
 10
3.900000
 20
0.531730
 30
0.295530
 70
 32
 40
0.000000
  0
VERTEX
  8
0
 10
3.900000
 20
0.536880
 30
0.280080
 70
 32
 40
0.000000
  0
VERTEX
  8
0
 10
3.900000
 20
0.539970
 30
0.262570
 70
 32
 40
0.000000
  0
VERTEX
  8
0
 10
3.900000
 20
0.541000
 30
0.243000
 70
 32
 40
0.000000
  0
SEQEND
  8
0
  0
POLYLINE
  8
0
 62
4
  6
CONTINUOUS
 66
  1
 70
  8
  0
VERTEX
  8
0
 10
3.900000
 20
-0.438000
 30
0.346000
 70
 32
 40
0.000000
  0
VERTEX
  8
0
 10
3.900000
 20
-0.457570
 30
0.344970
 70
 32
 40
0.000000
  0
VERTEX
  8
0
 10
3.900000
 20
-0.475080
 30
0.341880
 70
 32
 40
0.000000
  0
VERTEX
  8
0
 10
3.900000
 20
-0.490530
 30
0.336730
 70
 32
 40
0.000000
  0
VERTEX
  8
0
 10
3.900000
 20
-0.503920
 30
0.329520
 70
 32
 40
0.000000
  0
VERTEX
  8
0
 10
3.900000
 20
-0.515250
 30
0.320250
 70
 32
 40
0.000000
  0
VERTEX
  8
0
 10
3.900000
 20
-0.524520
 30
0.308920
 70
 32
 40
0.000000
  0
VERTEX
  8
0
 10
3.900000
 20
-0.531730
 30
0.295530
 70
 32
 40
0.000000
  0
VERTEX
  8
0
 10
3.900000
 20
-0.536880
 30
0.280080
 70
 32
 40
0.000000
  0
VERTEX
  8
0
 10
3.900000
 20
-0.539970
 30
0.262570
 70
 32
 40
0.000000
  0
VERTEX
  8
0
 10
3.900000
 20
-0.541000
 30
0.243000
 70
 32
 40
0.000000
  0
SEQEND
  8
0
  0
POLYLINE
  8
0
 62
4
  6
CONTINUOUS
 66
  1
 70
  8
  0
VERTEX
  8
0
 10
5.200000
 20
0.424000
 30
0.293000
 70
 32
 40
0.000000
  0
VERTEX
  8
0
 10
5.200000
 20
0.438250
 30
0.292250
 70
 32
 40
0.000000
  0
VERTEX
  8
0
 10
5.200000
 20
0.451000
 30
0.290000
 70
 32
 40
0.000000
  0
VERTEX
  8
0
 10
5.200000
 20
0.462250
 30
0.286250
 70
 32
 40
0.000000
  0
VERTEX
  8
0
 10
5.200000
 20
0.472000
 30
0.281000
 70
 32
 40
0.000000
  0
VERTEX
  8
0
 10
5.200000
 20
0.480250
 30
0.274250
 70
 32
 40
0.000000
  0
VERTEX
  8
0
 10
5.200000
 20
0.487000
 30
0.266000
 70
 32
 40
0.000000
  0
VERTEX
  8
0
 10
5.200000
 20
0.492250
 30
0.256250
 70
 32
 40
0.000000
  0
VERTEX
  8
0
 10
5.200000
 20
0.496000
 30
0.245000
 70
 32
 40
0.000000
  0
VERTEX
  8
0
 10
5.200000
 20
0.498250
 30
0.232250
 70
 32
 40
0.000000
  0
VERTEX
  8
0
 10
5.200000
 20
0.499000
 30
0.218000
 70
 32
 40
0.000000
  0
SEQEND
  8
0
  0
POLYLINE
  8
0
 62
4
  6
CONTINUOUS
 66
  1
 70
  8
  0
VERTEX
  8
0
 10
5.200000
 20
-0.424000
 30
0.293000
 70
 32
 40
0.000000
  0
VERTEX
  8
0
 10
5.200000
 20
-0.438250
 30
0.292250
 70
 32
 40
0.000000
  0
VERTEX
  8
0
 10
5.200000
 20
-0.451000
 30
0.290000
 70
 32
 40
0.000000
  0
VERTEX
  8
0
 10
5.200000
 20
-0.462250
 30
0.286250
 70
 32
 40
0.000000
  0
VERTEX
  8
0
 10
5.200000
 20
-0.472000
 30
0.281000
 70
 32
 40
0.000000
  0
VERTEX
  8
0
 10
5.200000
 20
-0.480250
 30
0.274250
 70
 32
 40
0.000000
  0
VERTEX
  8
0
 10
5.200000
 20
-0.487000
 30
0.266000
 70
 32
 40
0.000000
  0
VERTEX
  8
0
 10
5.200000
 20
-0.492250
 30
0.256250
 70
 32
 40
0.000000
  0
VERTEX
  8
0
 10
5.200000
 20
-0.496000
 30
0.245000
 70
 32
 40
0.000000
  0
VERTEX
  8
0
 10
5.200000
 20
-0.498250
 30
0.232250
 70
 32
 40
0.000000
  0
VERTEX
  8
0
 10
5.200000
 20
-0.499000
 30
0.218000
 70
 32
 40
0.000000
  0
SEQEND
  8
0
  0
POLYLINE
  8
0
 62
4
  6
CONTINUOUS
 66
  1
 70
  8
  0
VERTEX
  8
0
 10
6.500000
 20
0.251000
 30
0.263000
 70
 32
 40
0.000000
  0
VERTEX
  8
0
 10
6.500000
 20
0.264300
 30
0.262300
 70
 32
 40
0.000000
  0
VERTEX
  8
0
 10
6.500000
 20
0.276200
 30
0.260200
 70
 32
 40
0.000000
  0
VERTEX
  8
0
 10
6.500000
 20
0.286700
 30
0.256700
 70
 32
 40
0.000000
  0
VERTEX
  8
0
 10
6.500000
 20
0.295800
 30
0.251800
 70
 32
 40
0.000000
  0
VERTEX
  8
0
 10
6.500000
 20
0.303500
 30
0.245500
 70
 32
 40
0.000000
  0
VERTEX
  8
0
 10
6.500000
 20
0.309800
 30
0.237800
 70
 32
 40
0.000000
  0
VERTEX
  8
0
 10
6.500000
 20
0.314700
 30
0.228700
 70
 32
 40
0.000000
  0
VERTEX
  8
0
 10
6.500000
 20
0.318200
 30
0.218200
 70
 32
 40
0.000000
  0
VERTEX
  8
0
 10
6.500000
 20
0.320300
 30
0.206300
 70
 32
 40
0.000000
  0
VERTEX
  8
0
 10
6.500000
 20
0.321000
 30
0.193000
 70
 32
 40
0.000000
  0
SEQEND
  8
0
  0
POLYLINE
  8
0
 62
4
  6
CONTINUOUS
 66
  1
 70
  8
  0
VERTEX
  8
0
 10
6.500000
 20
-0.251000
 30
0.263000
 70
 32
 40
0.000000
  0
VERTEX
  8
0
 10
6.500000
 20
-0.264300
 30
0.262300
 70
 32
 40
0.000000
  0
VERTEX
  8
0
 10
6.500000
 20
-0.276200
 30
0.260200
 70
 32
 40
0.000000
  0
VERTEX
  8
0
 10
6.500000
 20
-0.286700
 30
0.256700
 70
 32
 40
0.000000
  0
VERTEX
  8
0
 10
6.500000
 20
-0.295800
 30
0.251800
 70
 32
 40
0.000000
  0
VERTEX
  8
0
 10
6.500000
 20
-0.303500
 30
0.245500
 70
 32
 40
0.000000
  0
VERTEX
  8
0
 10
6.500000
 20
-0.309800
 30
0.237800
 70
 32
 40
0.000000
  0
VERTEX
  8
0
 10
6.500000
 20
-0.314700
 30
0.228700
 70
 32
 40
0.000000
  0
VERTEX
  8
0
 10
6.500000
 20
-0.318200
 30
0.218200
 70
 32
 40
0.000000
  0
VERTEX
  8
0
 10
6.500000
 20
-0.320300
 30
0.206300
 70
 32
 40
0.000000
  0
VERTEX
  8
0
 10
6.500000
 20
-0.321000
 30
0.193000
 70
 32
 40
0.000000
  0
SEQEND
  8
0
  0
POLYLINE
  8
0
 62
3
  6
CONTINUOUS
 66
  1
 70
  8
  0
VERTEX
  8
0
 10
0.000000
 20
0.000000
 30
0.700000
 70
 32
 40
0.000000
  0
VERTEX
  8
0
 10
0.327980
 20
0.004800
 30
0.669570
 70
 32
 40
0.000000
  0
VERTEX
  8
0
 10
0.653780
 20
0.025100
 30
0.637110
 70
 32
 40
0.000000
  0
VERTEX
  8
0
 10
0.977890
 20
0.057870
 30
0.603330
 70
 32
 40
0.000000
  0
VERTEX
  8
0
 10
1.300770
 20
0.100110
 30
0.568920
 70
 32
 40
0.000000
  0
VERTEX
  8
0
 10
1.622910
 20
0.148800
 30
0.534580
 70
 32
 40
0.000000
  0
VERTEX
  8
0
 10
1.944760
 20
0.200930
 30
0.501000
 70
 32
 40
0.000000
  0
VERTEX
  8
0
 10
2.266820
 20
0.253490
 30
0.468880
 70
 32
 40
0.000000
  0
VERTEX
  8
0
 10
2.589550
 20
0.303460
 30
0.438920
 70
 32
 40
0.000000
  0
VERTEX
  8
0
 10
2.913350
 20
0.348130
 30
0.411700
 70
 32
 40
0.000000
  0
VERTEX
  8
0
 10
3.238200
 20
0.386080
 30
0.387280
 70
 32
 40
0.000000
  0
VERTEX
  8
0
 10
3.563990
 20
0.416230
 30
0.365580
 70
 32
 40
0.000000
  0
VERTEX
  8
0
 10
3.890600
 20
0.437530
 30
0.346510
 70
 32
 40
0.000000
  0
VERTEX
  8
0
 10
4.217890
 20
0.449070
 30
0.329970
 70
 32
 40
0.000000
  0
VERTEX
  8
0
 10
4.545550
 20
0.450660
 30
0.315710
 70
 32
 40
0.000000
  0
VERTEX
  8
0
 10
4.873240
 20
0.442290
 30
0.303480
 70
 32
 40
0.000000
  0
VERTEX
  8
0
 10
5.200610
 20
0.423960
 30
0.292980
 70
 32
 40
0.000000
  0
VERTEX
  8
0
 10
5.527320
 20
0.395670
 30
0.283960
 70
 32
 40
0.000000
  0
VERTEX
  8
0
 10
5.853020
 20
0.357410
 30
0.276140
 70
 32
 40
0.000000
  0
VERTEX
  8
0
 10
6.177360
 20
0.309190
 30
0.269240
 70
 32
 40
0.000000
  0
VERTEX
  8
0
 10
6.500000
 20
0.251000
 30
0.263000
 70
 32
 40
0.000000
  0
SEQEND
  8
0
  0
POLYLINE
  8
0
 62
3
  6
CONTINUOUS
 66
  1
 70
  8
  0
VERTEX
  8
0
 10
0.000000
 20
0.000000
 30
0.700000
 70
 32
 40
0.000000
  0
VERTEX
  8
0
 10
0.327980
 20
-0.004800
 30
0.669570
 70
 32
 40
0.000000
  0
VERTEX
  8
0
 10
0.653780
 20
-0.025100
 30
0.637110
 70
 32
 40
0.000000
  0
VERTEX
  8
0
 10
0.977890
 20
-0.057870
 30
0.603330
 70
 32
 40
0.000000
  0
VERTEX
  8
0
 10
1.300770
 20
-0.100110
 30
0.568920
 70
 32
 40
0.000000
  0
VERTEX
  8
0
 10
1.622910
 20
-0.148800
 30
0.534580
 70
 32
 40
0.000000
  0
VERTEX
  8
0
 10
1.944760
 20
-0.200930
 30
0.501000
 70
 32
 40
0.000000
  0
VERTEX
  8
0
 10
2.266820
 20
-0.253490
 30
0.468880
 70
 32
 40
0.000000
  0
VERTEX
  8
0
 10
2.589550
 20
-0.303460
 30
0.438920
 70
 32
 40
0.000000
  0
VERTEX
  8
0
 10
2.913350
 20
-0.348130
 30
0.411700
 70
 32
 40
0.000000
  0
VERTEX
  8
0
 10
3.238200
 20
-0.386080
 30
0.387280
 70
 32
 40
0.000000
  0
VERTEX
  8
0
 10
3.563990
 20
-0.416230
 30
0.365580
 70
 32
 40
0.000000
  0
VERTEX
  8
0
 10
3.890600
 20
-0.437530
 30
0.346510
 70
 32
 40
0.000000
  0
VERTEX
  8
0
 10
4.217890
 20
-0.449070
 30
0.329970
 70
 32
 40
0.000000
  0
VERTEX
  8
0
 10
4.545550
 20
-0.450660
 30
0.315710
 70
 32
 40
0.000000
  0
VERTEX
  8
0
 10
4.873240
 20
-0.442290
 30
0.303480
 70
 32
 40
0.000000
  0
VERTEX
  8
0
 10
5.200610
 20
-0.423960
 30
0.292980
 70
 32
 40
0.000000
  0
VERTEX
  8
0
 10
5.527320
 20
-0.395670
 30
0.283960
 70
 32
 40
0.000000
  0
VERTEX
  8
0
 10
5.853020
 20
-0.357410
 30
0.276140
 70
 32
 40
0.000000
  0
VERTEX
  8
0
 10
6.177360
 20
-0.309190
 30
0.269240
 70
 32
 40
0.000000
  0
VERTEX
  8
0
 10
6.500000
 20
-0.251000
 30
0.263000
 70
 32
 40
0.000000
  0
SEQEND
  8
0
  0
POLYLINE
  8
0
 62
3
  6
CONTINUOUS
 66
  1
 70
  8
  0
VERTEX
  8
0
 10
0.000000
 20
0.010440
 30
0.684720
 70
 32
 40
0.000000
  0
VERTEX
  8
0
 10
0.325480
 20
0.040770
 30
0.655520
 70
 32
 40
0.000000
  0
VERTEX
  8
0
 10
0.649640
 20
0.079080
 30
0.624290
 70
 32
 40
0.000000
  0
VERTEX
  8
0
 10
0.972840
 20
0.123380
 30
0.591700
 70
 32
 40
0.000000
  0
VERTEX
  8
0
 10
1.295420
 20
0.171660
 30
0.558430
 70
 32
 40
0.000000
  0
VERTEX
  8
0
 10
1.617740
 20
0.221910
 30
0.525180
 70
 32
 40
0.000000
  0
VERTEX
  8
0
 10
1.940130
 20
0.272130
 30
0.492630
 70
 32
 40
0.000000
  0
VERTEX
  8
0
 10
2.262950
 20
0.320330
 30
0.461460
 70
 32
 40
0.000000
  0
VERTEX
  8
0
 10
2.586540
 20
0.364480
 30
0.432350
 70
 32
 40
0.000000
  0
VERTEX
  8
0
 10
2.911170
 20
0.402800
 30
0.405890
 70
 32
 40
0.000000
  0
VERTEX
  8
0
 10
3.236790
 20
0.434380
 30
0.382120
 70
 32
 40
0.000000
  0
VERTEX
  8
0
 10
3.563220
 20
0.458570
 30
0.360980
 70
 32
 40
0.000000
  0
VERTEX
  8
0
 10
3.890300
 20
0.474730
 30
0.342390
 70
 32
 40
0.000000
  0
VERTEX
  8
0
 10
4.217850
 20
0.482290
 30
0.326240
 70
 32
 40
0.000000
  0
VERTEX
  8
0
 10
4.545590
 20
0.480970
 30
0.312300
 70
 32
 40
0.000000
  0
VERTEX
  8
0
 10
4.873250
 20
0.470590
 30
0.300300
 70
 32
 40
0.000000
  0
VERTEX
  8
0
 10
5.200530
 20
0.450960
 30
0.289980
 70
 32
 40
0.000000
  0
VERTEX
  8
0
 10
5.527130
 20
0.421890
 30
0.281080
 70
 32
 40
0.000000
  0
VERTEX
  8
0
 10
5.852770
 20
0.383200
 30
0.273320
 70
 32
 40
0.000000
  0
VERTEX
  8
0
 10
6.177160
 20
0.334700
 30
0.266450
 70
 32
 40
0.000000
  0
VERTEX
  8
0
 10
6.500000
 20
0.276200
 30
0.260200
 70
 32
 40
0.000000
  0
SEQEND
  8
0
  0
POLYLINE
  8
0
 62
3
  6
CONTINUOUS
 66
  1
 70
  8
  0
VERTEX
  8
0
 10
0.000000
 20
-0.010440
 30
0.684720
 70
 32
 40
0.000000
  0
VERTEX
  8
0
 10
0.325480
 20
-0.040770
 30
0.655520
 70
 32
 40
0.000000
  0
VERTEX
  8
0
 10
0.649640
 20
-0.079080
 30
0.624290
 70
 32
 40
0.000000
  0
VERTEX
  8
0
 10
0.972840
 20
-0.123380
 30
0.591700
 70
 32
 40
0.000000
  0
VERTEX
  8
0
 10
1.295420
 20
-0.171660
 30
0.558430
 70
 32
 40
0.000000
  0
VERTEX
  8
0
 10
1.617740
 20
-0.221910
 30
0.525180
 70
 32
 40
0.000000
  0
VERTEX
  8
0
 10
1.940130
 20
-0.272130
 30
0.492630
 70
 32
 40
0.000000
  0
VERTEX
  8
0
 10
2.262950
 20
-0.320330
 30
0.461460
 70
 32
 40
0.000000
  0
VERTEX
  8
0
 10
2.586540
 20
-0.364480
 30
0.432350
 70
 32
 40
0.000000
  0
VERTEX
  8
0
 10
2.911170
 20
-0.402800
 30
0.405890
 70
 32
 40
0.000000
  0
VERTEX
  8
0
 10
3.236790
 20
-0.434380
 30
0.382120
 70
 32
 40
0.000000
  0
VERTEX
  8
0
 10
3.563220
 20
-0.458570
 30
0.360980
 70
 32
 40
0.000000
  0
VERTEX
  8
0
 10
3.890300
 20
-0.474730
 30
0.342390
 70
 32
 40
0.000000
  0
VERTEX
  8
0
 10
4.217850
 20
-0.482290
 30
0.326240
 70
 32
 40
0.000000
  0
VERTEX
  8
0
 10
4.545590
 20
-0.480970
 30
0.312300
 70
 32
 40
0.000000
  0
VERTEX
  8
0
 10
4.873250
 20
-0.470590
 30
0.300300
 70
 32
 40
0.000000
  0
VERTEX
  8
0
 10
5.200530
 20
-0.450960
 30
0.289980
 70
 32
 40
0.000000
  0
VERTEX
  8
0
 10
5.527130
 20
-0.421890
 30
0.281080
 70
 32
 40
0.000000
  0
VERTEX
  8
0
 10
5.852770
 20
-0.383200
 30
0.273320
 70
 32
 40
0.000000
  0
VERTEX
  8
0
 10
6.177160
 20
-0.334700
 30
0.266450
 70
 32
 40
0.000000
  0
VERTEX
  8
0
 10
6.500000
 20
-0.276200
 30
0.260200
 70
 32
 40
0.000000
  0
SEQEND
  8
0
  0
POLYLINE
  8
0
 62
3
  6
CONTINUOUS
 66
  1
 70
  8
  0
VERTEX
  8
0
 10
0.000000
 20
0.018560
 30
0.638880
 70
 32
 40
0.000000
  0
VERTEX
  8
0
 10
0.322900
 20
0.068550
 30
0.612800
 70
 32
 40
0.000000
  0
VERTEX
  8
0
 10
0.645430
 20
0.120780
 30
0.584840
 70
 32
 40
0.000000
  0
VERTEX
  8
0
 10
0.967790
 20
0.174030
 30
0.555620
 70
 32
 40
0.000000
  0
VERTEX
  8
0
 10
1.290180
 20
0.227040
 30
0.525750
 70
 32
 40
0.000000
  0
VERTEX
  8
0
 10
1.612790
 20
0.278590
 30
0.495850
 70
 32
 40
0.000000
  0
VERTEX
  8
0
 10
1.935810
 20
0.327420
 30
0.466520
 70
 32
 40
0.000000
  0
VERTEX
  8
0
 10
2.259450
 20
0.372300
 30
0.438380
 70
 32
 40
0.000000
  0
VERTEX
  8
0
 10
2.583900
 20
0.411990
 30
0.412050
 70
 32
 40
0.000000
  0
VERTEX
  8
0
 10
2.909300
 20
0.445380
 30
0.388040
 70
 32
 40
0.000000
  0
VERTEX
  8
0
 10
3.235550
 20
0.472000
 30
0.366410
 70
 32
 40
0.000000
  0
VERTEX
  8
0
 10
3.562480
 20
0.491520
 30
0.347090
 70
 32
 40
0.000000
  0
VERTEX
  8
0
 10
3.889910
 20
0.503670
 30
0.330010
 70
 32
 40
0.000000
  0
VERTEX
  8
0
 10
4.217670
 20
0.508110
 30
0.315080
 70
 32
 40
0.000000
  0
VERTEX
  8
0
 10
4.545500
 20
0.504540
 30
0.302090
 70
 32
 40
0.000000
  0
VERTEX
  8
0
 10
4.873170
 20
0.492600
 30
0.290800
 70
 32
 40
0.000000
  0
VERTEX
  8
0
 10
5.200410
 20
0.471970
 30
0.280990
 70
 32
 40
0.000000
  0
VERTEX
  8
0
 10
5.526960
 20
0.442310
 30
0.272420
 70
 32
 40
0.000000
  0
VERTEX
  8
0
 10
5.852580
 20
0.403280
 30
0.264850
 70
 32
 40
0.000000
  0
VERTEX
  8
0
 10
6.177010
 20
0.354560
 30
0.258060
 70
 32
 40
0.000000
  0
VERTEX
  8
0
 10
6.500000
 20
0.295800
 30
0.251800
 70
 32
 40
0.000000
  0
SEQEND
  8
0
  0
POLYLINE
  8
0
 62
3
  6
CONTINUOUS
 66
  1
 70
  8
  0
VERTEX
  8
0
 10
0.000000
 20
-0.018560
 30
0.638880
 70
 32
 40
0.000000
  0
VERTEX
  8
0
 10
0.322900
 20
-0.068550
 30
0.612800
 70
 32
 40
0.000000
  0
VERTEX
  8
0
 10
0.645430
 20
-0.120780
 30
0.584840
 70
 32
 40
0.000000
  0
VERTEX
  8
0
 10
0.967790
 20
-0.174030
 30
0.555620
 70
 32
 40
0.000000
  0
VERTEX
  8
0
 10
1.290180
 20
-0.227040
 30
0.525750
 70
 32
 40
0.000000
  0
VERTEX
  8
0
 10
1.612790
 20
-0.278590
 30
0.495850
 70
 32
 40
0.000000
  0
VERTEX
  8
0
 10
1.935810
 20
-0.327420
 30
0.466520
 70
 32
 40
0.000000
  0
VERTEX
  8
0
 10
2.259450
 20
-0.372300
 30
0.438380
 70
 32
 40
0.000000
  0
VERTEX
  8
0
 10
2.583900
 20
-0.411990
 30
0.412050
 70
 32
 40
0.000000
  0
VERTEX
  8
0
 10
2.909300
 20
-0.445380
 30
0.388040
 70
 32
 40
0.000000
  0
VERTEX
  8
0
 10
3.235550
 20
-0.472000
 30
0.366410
 70
 32
 40
0.000000
  0
VERTEX
  8
0
 10
3.562480
 20
-0.491520
 30
0.347090
 70
 32
 40
0.000000
  0
VERTEX
  8
0
 10
3.889910
 20
-0.503670
 30
0.330010
 70
 32
 40
0.000000
  0
VERTEX
  8
0
 10
4.217670
 20
-0.508110
 30
0.315080
 70
 32
 40
0.000000
  0
VERTEX
  8
0
 10
4.545500
 20
-0.504540
 30
0.302090
 70
 32
 40
0.000000
  0
VERTEX
  8
0
 10
4.873170
 20
-0.492600
 30
0.290800
 70
 32
 40
0.000000
  0
VERTEX
  8
0
 10
5.200410
 20
-0.471970
 30
0.280990
 70
 32
 40
0.000000
  0
VERTEX
  8
0
 10
5.526960
 20
-0.442310
 30
0.272420
 70
 32
 40
0.000000
  0
VERTEX
  8
0
 10
5.852580
 20
-0.403280
 30
0.264850
 70
 32
 40
0.000000
  0
VERTEX
  8
0
 10
6.177010
 20
-0.354560
 30
0.258060
 70
 32
 40
0.000000
  0
VERTEX
  8
0
 10
6.500000
 20
-0.295800
 30
0.251800
 70
 32
 40
0.000000
  0
SEQEND
  8
0
  0
POLYLINE
  8
0
 62
3
  6
CONTINUOUS
 66
  1
 70
  8
  0
VERTEX
  8
0
 10
0.000000
 20
0.024360
 30
0.562480
 70
 32
 40
0.000000
  0
VERTEX
  8
0
 10
0.320750
 20
0.088280
 30
0.541300
 70
 32
 40
0.000000
  0
VERTEX
  8
0
 10
0.641960
 20
0.150410
 30
0.518620
 70
 32
 40
0.000000
  0
VERTEX
  8
0
 10
0.963700
 20
0.210050
 30
0.494930
 70
 32
 40
0.000000
  0
VERTEX
  8
0
 10
1.286020
 20
0.266480
 30
0.470690
 70
 32
 40
0.000000
  0
VERTEX
  8
0
 10
1.608980
 20
0.319000
 30
0.446400
 70
 32
 40
0.000000
  0
VERTEX
  8
0
 10
1.932630
 20
0.366890
 30
0.422520
 70
 32
 40
0.000000
  0
VERTEX
  8
0
 10
2.257020
 20
0.409460
 30
0.399540
 70
 32
 40
0.000000
  0
VERTEX
  8
0
 10
2.582220
 20
0.445990
 30
0.377930
 70
 32
 40
0.000000
  0
VERTEX
  8
0
 10
2.908240
 20
0.475870
 30
0.358100
 70
 32
 40
0.000000
  0
VERTEX
  8
0
 10
3.234970
 20
0.498930
 30
0.340100
 70
 32
 40
0.000000
  0
VERTEX
  8
0
 10
3.562240
 20
0.515100
 30
0.323860
 70
 32
 40
0.000000
  0
VERTEX
  8
0
 10
3.889900
 20
0.524350
 30
0.309340
 70
 32
 40
0.000000
  0
VERTEX
  8
0
 10
4.217780
 20
0.526550
 30
0.296460
 70
 32
 40
0.000000
  0
VERTEX
  8
0
 10
4.545660
 20
0.521360
 30
0.285060
 70
 32
 40
0.000000
  0
VERTEX
  8
0
 10
4.873300
 20
0.508310
 30
0.274960
 70
 32
 40
0.000000
  0
VERTEX
  8
0
 10
5.200490
 20
0.486960
 30
0.265990
 70
 32
 40
0.000000
  0
VERTEX
  8
0
 10
5.526980
 20
0.456880
 30
0.257960
 70
 32
 40
0.000000
  0
VERTEX
  8
0
 10
5.852550
 20
0.417620
 30
0.250710
 70
 32
 40
0.000000
  0
VERTEX
  8
0
 10
6.176960
 20
0.368740
 30
0.244050
 70
 32
 40
0.000000
  0
VERTEX
  8
0
 10
6.500000
 20
0.309800
 30
0.237800
 70
 32
 40
0.000000
  0
SEQEND
  8
0
  0
POLYLINE
  8
0
 62
3
  6
CONTINUOUS
 66
  1
 70
  8
  0
VERTEX
  8
0
 10
0.000000
 20
-0.024360
 30
0.562480
 70
 32
 40
0.000000
  0
VERTEX
  8
0
 10
0.320750
 20
-0.088280
 30
0.541300
 70
 32
 40
0.000000
  0
VERTEX
  8
0
 10
0.641960
 20
-0.150410
 30
0.518620
 70
 32
 40
0.000000
  0
VERTEX
  8
0
 10
0.963700
 20
-0.210050
 30
0.494930
 70
 32
 40
0.000000
  0
VERTEX
  8
0
 10
1.286020
 20
-0.266480
 30
0.470690
 70
 32
 40
0.000000
  0
VERTEX
  8
0
 10
1.608980
 20
-0.319000
 30
0.446400
 70
 32
 40
0.000000
  0
VERTEX
  8
0
 10
1.932630
 20
-0.366890
 30
0.422520
 70
 32
 40
0.000000
  0
VERTEX
  8
0
 10
2.257020
 20
-0.409460
 30
0.399540
 70
 32
 40
0.000000
  0
VERTEX
  8
0
 10
2.582220
 20
-0.445990
 30
0.377930
 70
 32
 40
0.000000
  0
VERTEX
  8
0
 10
2.908240
 20
-0.475870
 30
0.358100
 70
 32
 40
0.000000
  0
VERTEX
  8
0
 10
3.234970
 20
-0.498930
 30
0.340100
 70
 32
 40
0.000000
  0
VERTEX
  8
0
 10
3.562240
 20
-0.515100
 30
0.323860
 70
 32
 40
0.000000
  0
VERTEX
  8
0
 10
3.889900
 20
-0.524350
 30
0.309340
 70
 32
 40
0.000000
  0
VERTEX
  8
0
 10
4.217780
 20
-0.526550
 30
0.296460
 70
 32
 40
0.000000
  0
VERTEX
  8
0
 10
4.545660
 20
-0.521360
 30
0.285060
 70
 32
 40
0.000000
  0
VERTEX
  8
0
 10
4.873300
 20
-0.508310
 30
0.274960
 70
 32
 40
0.000000
  0
VERTEX
  8
0
 10
5.200490
 20
-0.486960
 30
0.265990
 70
 32
 40
0.000000
  0
VERTEX
  8
0
 10
5.526980
 20
-0.456880
 30
0.257960
 70
 32
 40
0.000000
  0
VERTEX
  8
0
 10
5.852550
 20
-0.417620
 30
0.250710
 70
 32
 40
0.000000
  0
VERTEX
  8
0
 10
6.176960
 20
-0.368740
 30
0.244050
 70
 32
 40
0.000000
  0
VERTEX
  8
0
 10
6.500000
 20
-0.309800
 30
0.237800
 70
 32
 40
0.000000
  0
SEQEND
  8
0
  0
POLYLINE
  8
0
 62
3
  6
CONTINUOUS
 66
  1
 70
  8
  0
VERTEX
  8
0
 10
0.000000
 20
0.027840
 30
0.455520
 70
 32
 40
0.000000
  0
VERTEX
  8
0
 10
0.319360
 20
0.100090
 30
0.440980
 70
 32
 40
0.000000
  0
VERTEX
  8
0
 10
0.639770
 20
0.168150
 30
0.425560
 70
 32
 40
0.000000
  0
VERTEX
  8
0
 10
0.961180
 20
0.231620
 30
0.409540
 70
 32
 40
0.000000
  0
VERTEX
  8
0
 10
1.283550
 20
0.290120
 30
0.393200
 70
 32
 40
0.000000
  0
VERTEX
  8
0
 10
1.606830
 20
0.343250
 30
0.376800
 70
 32
 40
0.000000
  0
VERTEX
  8
0
 10
1.930970
 20
0.390610
 30
0.360610
 70
 32
 40
0.000000
  0
VERTEX
  8
0
 10
2.255940
 20
0.431810
 30
0.344930
 70
 32
 40
0.000000
  0
VERTEX
  8
0
 10
2.581670
 20
0.466460
 30
0.330010
 70
 32
 40
0.000000
  0
VERTEX
  8
0
 10
2.908110
 20
0.494230
 30
0.316090
 70
 32
 40
0.000000
  0
VERTEX
  8
0
 10
3.235140
 20
0.515130
 30
0.303210
 70
 32
 40
0.000000
  0
VERTEX
  8
0
 10
3.562610
 20
0.529270
 30
0.291310
 70
 32
 40
0.000000
  0
VERTEX
  8
0
 10
3.890380
 20
0.536760
 30
0.280390
 70
 32
 40
0.000000
  0
VERTEX
  8
0
 10
4.218300
 20
0.537610
 30
0.270380
 70
 32
 40
0.000000
  0
VERTEX
  8
0
 10
4.546150
 20
0.531430
 30
0.261210
 70
 32
 40
0.000000
  0
VERTEX
  8
0
 10
4.873730
 20
0.517710
 30
0.252780
 70
 32
 40
0.000000
  0
VERTEX
  8
0
 10
5.200820
 20
0.495930
 30
0.244980
 70
 32
 40
0.000000
  0
VERTEX
  8
0
 10
5.527210
 20
0.465610
 30
0.237720
 70
 32
 40
0.000000
  0
VERTEX
  8
0
 10
5.852680
 20
0.426210
 30
0.230910
 70
 32
 40
0.000000
  0
VERTEX
  8
0
 10
6.177010
 20
0.377250
 30
0.224430
 70
 32
 40
0.000000
  0
VERTEX
  8
0
 10
6.500000
 20
0.318200
 30
0.218200
 70
 32
 40
0.000000
  0
SEQEND
  8
0
  0
POLYLINE
  8
0
 62
3
  6
CONTINUOUS
 66
  1
 70
  8
  0
VERTEX
  8
0
 10
0.000000
 20
-0.027840
 30
0.455520
 70
 32
 40
0.000000
  0
VERTEX
  8
0
 10
0.319360
 20
-0.100090
 30
0.440980
 70
 32
 40
0.000000
  0
VERTEX
  8
0
 10
0.639770
 20
-0.168150
 30
0.425560
 70
 32
 40
0.000000
  0
VERTEX
  8
0
 10
0.961180
 20
-0.231620
 30
0.409540
 70
 32
 40
0.000000
  0
VERTEX
  8
0
 10
1.283550
 20
-0.290120
 30
0.393200
 70
 32
 40
0.000000
  0
VERTEX
  8
0
 10
1.606830
 20
-0.343250
 30
0.376800
 70
 32
 40
0.000000
  0
VERTEX
  8
0
 10
1.930970
 20
-0.390610
 30
0.360610
 70
 32
 40
0.000000
  0
VERTEX
  8
0
 10
2.255940
 20
-0.431810
 30
0.344930
 70
 32
 40
0.000000
  0
VERTEX
  8
0
 10
2.581670
 20
-0.466460
 30
0.330010
 70
 32
 40
0.000000
  0
VERTEX
  8
0
 10
2.908110
 20
-0.494230
 30
0.316090
 70
 32
 40
0.000000
  0
VERTEX
  8
0
 10
3.235140
 20
-0.515130
 30
0.303210
 70
 32
 40
0.000000
  0
VERTEX
  8
0
 10
3.562610
 20
-0.529270
 30
0.291310
 70
 32
 40
0.000000
  0
VERTEX
  8
0
 10
3.890380
 20
-0.536760
 30
0.280390
 70
 32
 40
0.000000
  0
VERTEX
  8
0
 10
4.218300
 20
-0.537610
 30
0.270380
 70
 32
 40
0.000000
  0
VERTEX
  8
0
 10
4.546150
 20
-0.531430
 30
0.261210
 70
 32
 40
0.000000
  0
VERTEX
  8
0
 10
4.873730
 20
-0.517710
 30
0.252780
 70
 32
 40
0.000000
  0
VERTEX
  8
0
 10
5.200820
 20
-0.495930
 30
0.244980
 70
 32
 40
0.000000
  0
VERTEX
  8
0
 10
5.527210
 20
-0.465610
 30
0.237720
 70
 32
 40
0.000000
  0
VERTEX
  8
0
 10
5.852680
 20
-0.426210
 30
0.230910
 70
 32
 40
0.000000
  0
VERTEX
  8
0
 10
6.177010
 20
-0.377250
 30
0.224430
 70
 32
 40
0.000000
  0
VERTEX
  8
0
 10
6.500000
 20
-0.318200
 30
0.218200
 70
 32
 40
0.000000
  0
SEQEND
  8
0
  0
POLYLINE
  8
0
 62
3
  6
CONTINUOUS
 66
  1
 70
  8
  0
VERTEX
  8
0
 10
0.000000
 20
0.029000
 30
0.318000
 70
 32
 40
0.000000
  0
VERTEX
  8
0
 10
0.318920
 20
0.104030
 30
0.311870
 70
 32
 40
0.000000
  0
VERTEX
  8
0
 10
0.639110
 20
0.174070
 30
0.305710
 70
 32
 40
0.000000
  0
VERTEX
  8
0
 10
0.960480
 20
0.238840
 30
0.299530
 70
 32
 40
0.000000
  0
VERTEX
  8
0
 10
1.282950
 20
0.298040
 30
0.293330
 70
 32
 40
0.000000
  0
VERTEX
  8
0
 10
1.606430
 20
0.351370
 30
0.287110
 70
 32
 40
0.000000
  0
VERTEX
  8
0
 10
1.930820
 20
0.398560
 30
0.280870
 70
 32
 40
0.000000
  0
VERTEX
  8
0
 10
2.256050
 20
0.439310
 30
0.274610
 70
 32
 40
0.000000
  0
VERTEX
  8
0
 10
2.582030
 20
0.473330
 30
0.268350
 70
 32
 40
0.000000
  0
VERTEX
  8
0
 10
2.908650
 20
0.500390
 30
0.262060
 70
 32
 40
0.000000
  0
VERTEX
  8
0
 10
3.235800
 20
0.520560
 30
0.255770
 70
 32
 40
0.000000
  0
VERTEX
  8
0
 10
3.563330
 20
0.534010
 30
0.249470
 70
 32
 40
0.000000
  0
VERTEX
  8
0
 10
3.891120
 20
0.540900
 30
0.243170
 70
 32
 40
0.000000
  0
VERTEX
  8
0
 10
4.219000
 20
0.541290
 30
0.236870
 70
 32
 40
0.000000
  0
VERTEX
  8
0
 10
4.546800
 20
0.534770
 30
0.230560
 70
 32
 40
0.000000
  0
VERTEX
  8
0
 10
4.874290
 20
0.520820
 30
0.224260
 70
 32
 40
0.000000
  0
VERTEX
  8
0
 10
5.201280
 20
0.498900
 30
0.217980
 70
 32
 40
0.000000
  0
VERTEX
  8
0
 10
5.527550
 20
0.468490
 30
0.211700
 70
 32
 40
0.000000
  0
VERTEX
  8
0
 10
5.852900
 20
0.429050
 30
0.205440
 70
 32
 40
0.000000
  0
VERTEX
  8
0
 10
6.177120
 20
0.380060
 30
0.199210
 70
 32
 40
0.000000
  0
VERTEX
  8
0
 10
6.500000
 20
0.321000
 30
0.193000
 70
 32
 40
0.000000
  0
SEQEND
  8
0
  0
POLYLINE
  8
0
 62
3
  6
CONTINUOUS
 66
  1
 70
  8
  0
VERTEX
  8
0
 10
0.000000
 20
-0.029000
 30
0.318000
 70
 32
 40
0.000000
  0
VERTEX
  8
0
 10
0.318920
 20
-0.104030
 30
0.311870
 70
 32
 40
0.000000
  0
VERTEX
  8
0
 10
0.639110
 20
-0.174070
 30
0.305710
 70
 32
 40
0.000000
  0
VERTEX
  8
0
 10
0.960480
 20
-0.238840
 30
0.299530
 70
 32
 40
0.000000
  0
VERTEX
  8
0
 10
1.282950
 20
-0.298040
 30
0.293330
 70
 32
 40
0.000000
  0
VERTEX
  8
0
 10
1.606430
 20
-0.351370
 30
0.287110
 70
 32
 40
0.000000
  0
VERTEX
  8
0
 10
1.930820
 20
-0.398560
 30
0.280870
 70
 32
 40
0.000000
  0
VERTEX
  8
0
 10
2.256050
 20
-0.439310
 30
0.274610
 70
 32
 40
0.000000
  0
VERTEX
  8
0
 10
2.582030
 20
-0.473330
 30
0.268350
 70
 32
 40
0.000000
  0
VERTEX
  8
0
 10
2.908650
 20
-0.500390
 30
0.262060
 70
 32
 40
0.000000
  0
VERTEX
  8
0
 10
3.235800
 20
-0.520560
 30
0.255770
 70
 32
 40
0.000000
  0
VERTEX
  8
0
 10
3.563330
 20
-0.534010
 30
0.249470
 70
 32
 40
0.000000
  0
VERTEX
  8
0
 10
3.891120
 20
-0.540900
 30
0.243170
 70
 32
 40
0.000000
  0
VERTEX
  8
0
 10
4.219000
 20
-0.541290
 30
0.236870
 70
 32
 40
0.000000
  0
VERTEX
  8
0
 10
4.546800
 20
-0.534770
 30
0.230560
 70
 32
 40
0.000000
  0
VERTEX
  8
0
 10
4.874290
 20
-0.520820
 30
0.224260
 70
 32
 40
0.000000
  0
VERTEX
  8
0
 10
5.201280
 20
-0.498900
 30
0.217980
 70
 32
 40
0.000000
  0
VERTEX
  8
0
 10
5.527550
 20
-0.468490
 30
0.211700
 70
 32
 40
0.000000
  0
VERTEX
  8
0
 10
5.852900
 20
-0.429050
 30
0.205440
 70
 32
 40
0.000000
  0
VERTEX
  8
0
 10
6.177120
 20
-0.380060
 30
0.199210
 70
 32
 40
0.000000
  0
VERTEX
  8
0
 10
6.500000
 20
-0.321000
 30
0.193000
 70
 32
 40
0.000000
  0
SEQEND
  8
0
  0
POLYLINE
  8
0
 62
6
  6
CONTINUOUS
 66
  1
 70
  9
  0
VERTEX
  8
0
 10
0.000000
 20
0.000000
 30
0.700000
 70
 32
 40
0.000000
  0
VERTEX
  8
0
 10
0.000000
 20
0.000000
 30
0.700000
 70
 32
 40
0.000000
  0
VERTEX
  8
0
 10
0.000000
 20
0.000000
 30
0.700000
 70
 32
 40
0.000000
  0
VERTEX
  8
0
 10
0.000000
 20
0.000000
 30
0.700000
 70
 32
 40
0.000000
  0
VERTEX
  8
0
 10
0.000000
 20
0.000000
 30
0.700000
 70
 32
 40
0.000000
  0
VERTEX
  8
0
 10
0.000000
 20
0.000000
 30
0.700000
 70
 32
 40
0.000000
  0
VERTEX
  8
0
 10
0.000000
 20
0.000000
 30
0.700000
 70
 32
 40
0.000000
  0
VERTEX
  8
0
 10
0.000000
 20
0.000000
 30
0.700000
 70
 32
 40
0.000000
  0
VERTEX
  8
0
 10
0.000000
 20
0.000000
 30
0.700000
 70
 32
 40
0.000000
  0
VERTEX
  8
0
 10
0.000000
 20
0.000000
 30
0.700000
 70
 32
 40
0.000000
  0
SEQEND
  8
0
  0
POLYLINE
  8
0
 62
6
  6
CONTINUOUS
 66
  1
 70
  9
  0
VERTEX
  8
0
 10
0.000000
 20
0.000000
 30
0.700000
 70
 32
 40
0.000000
  0
VERTEX
  8
0
 10
0.000000
 20
0.000000
 30
0.700000
 70
 32
 40
0.000000
  0
VERTEX
  8
0
 10
0.000000
 20
0.000000
 30
0.700000
 70
 32
 40
0.000000
  0
VERTEX
  8
0
 10
0.000000
 20
0.000000
 30
0.700000
 70
 32
 40
0.000000
  0
VERTEX
  8
0
 10
0.000000
 20
0.000000
 30
0.700000
 70
 32
 40
0.000000
  0
VERTEX
  8
0
 10
0.000000
 20
0.000000
 30
0.700000
 70
 32
 40
0.000000
  0
VERTEX
  8
0
 10
0.000000
 20
0.000000
 30
0.700000
 70
 32
 40
0.000000
  0
VERTEX
  8
0
 10
0.000000
 20
0.000000
 30
0.700000
 70
 32
 40
0.000000
  0
VERTEX
  8
0
 10
0.000000
 20
0.000000
 30
0.700000
 70
 32
 40
0.000000
  0
VERTEX
  8
0
 10
0.000000
 20
0.000000
 30
0.700000
 70
 32
 40
0.000000
  0
SEQEND
  8
0
  0
POLYLINE
  8
0
 62
6
  6
CONTINUOUS
 66
  1
 70
  8
  0
VERTEX
  8
0
 10
1.300000
 20
0.100000
 30
0.569000
 70
 32
 40
0.000000
  0
VERTEX
  8
0
 10
1.300000
 20
0.090000
 30
0.571000
 70
 32
 40
0.000000
  0
VERTEX
  8
0
 10
1.300000
 20
0.080000
 30
0.573000
 70
 32
 40
0.000000
  0
VERTEX
  8
0
 10
1.300000
 20
0.070000
 30
0.575000
 70
 32
 40
0.000000
  0
VERTEX
  8
0
 10
1.300000
 20
0.060000
 30
0.577000
 70
 32
 40
0.000000
  0
VERTEX
  8
0
 10
1.300000
 20
0.050000
 30
0.579000
 70
 32
 40
0.000000
  0
VERTEX
  8
0
 10
1.300000
 20
0.040000
 30
0.581000
 70
 32
 40
0.000000
  0
VERTEX
  8
0
 10
1.300000
 20
0.030000
 30
0.583000
 70
 32
 40
0.000000
  0
VERTEX
  8
0
 10
1.300000
 20
0.020000
 30
0.585000
 70
 32
 40
0.000000
  0
VERTEX
  8
0
 10
1.300000
 20
0.010000
 30
0.587000
 70
 32
 40
0.000000
  0
VERTEX
  8
0
 10
1.300000
 20
0.000000
 30
0.589000
 70
 32
 40
0.000000
  0
SEQEND
  8
0
  0
POLYLINE
  8
0
 62
6
  6
CONTINUOUS
 66
  1
 70
  8
  0
VERTEX
  8
0
 10
1.300000
 20
-0.100000
 30
0.569000
 70
 32
 40
0.000000
  0
VERTEX
  8
0
 10
1.300000
 20
-0.090000
 30
0.571000
 70
 32
 40
0.000000
  0
VERTEX
  8
0
 10
1.300000
 20
-0.080000
 30
0.573000
 70
 32
 40
0.000000
  0
VERTEX
  8
0
 10
1.300000
 20
-0.070000
 30
0.575000
 70
 32
 40
0.000000
  0
VERTEX
  8
0
 10
1.300000
 20
-0.060000
 30
0.577000
 70
 32
 40
0.000000
  0
VERTEX
  8
0
 10
1.300000
 20
-0.050000
 30
0.579000
 70
 32
 40
0.000000
  0
VERTEX
  8
0
 10
1.300000
 20
-0.040000
 30
0.581000
 70
 32
 40
0.000000
  0
VERTEX
  8
0
 10
1.300000
 20
-0.030000
 30
0.583000
 70
 32
 40
0.000000
  0
VERTEX
  8
0
 10
1.300000
 20
-0.020000
 30
0.585000
 70
 32
 40
0.000000
  0
VERTEX
  8
0
 10
1.300000
 20
-0.010000
 30
0.587000
 70
 32
 40
0.000000
  0
VERTEX
  8
0
 10
1.300000
 20
0.000000
 30
0.589000
 70
 32
 40
0.000000
  0
SEQEND
  8
0
  0
POLYLINE
  8
0
 62
6
  6
CONTINUOUS
 66
  1
 70
  8
  0
VERTEX
  8
0
 10
2.600000
 20
0.305000
 30
0.438000
 70
 32
 40
0.000000
  0
VERTEX
  8
0
 10
2.600000
 20
0.274500
 30
0.440000
 70
 32
 40
0.000000
  0
VERTEX
  8
0
 10
2.600000
 20
0.244000
 30
0.442000
 70
 32
 40
0.000000
  0
VERTEX
  8
0
 10
2.600000
 20
0.213500
 30
0.444000
 70
 32
 40
0.000000
  0
VERTEX
  8
0
 10
2.600000
 20
0.183000
 30
0.446000
 70
 32
 40
0.000000
  0
VERTEX
  8
0
 10
2.600000
 20
0.152500
 30
0.448000
 70
 32
 40
0.000000
  0
VERTEX
  8
0
 10
2.600000
 20
0.122000
 30
0.450000
 70
 32
 40
0.000000
  0
VERTEX
  8
0
 10
2.600000
 20
0.091500
 30
0.452000
 70
 32
 40
0.000000
  0
VERTEX
  8
0
 10
2.600000
 20
0.061000
 30
0.454000
 70
 32
 40
0.000000
  0
VERTEX
  8
0
 10
2.600000
 20
0.030500
 30
0.456000
 70
 32
 40
0.000000
  0
VERTEX
  8
0
 10
2.600000
 20
0.000000
 30
0.458000
 70
 32
 40
0.000000
  0
SEQEND
  8
0
  0
POLYLINE
  8
0
 62
6
  6
CONTINUOUS
 66
  1
 70
  8
  0
VERTEX
  8
0
 10
2.600000
 20
-0.305000
 30
0.438000
 70
 32
 40
0.000000
  0
VERTEX
  8
0
 10
2.600000
 20
-0.274500
 30
0.440000
 70
 32
 40
0.000000
  0
VERTEX
  8
0
 10
2.600000
 20
-0.244000
 30
0.442000
 70
 32
 40
0.000000
  0
VERTEX
  8
0
 10
2.600000
 20
-0.213500
 30
0.444000
 70
 32
 40
0.000000
  0
VERTEX
  8
0
 10
2.600000
 20
-0.183000
 30
0.446000
 70
 32
 40
0.000000
  0
VERTEX
  8
0
 10
2.600000
 20
-0.152500
 30
0.448000
 70
 32
 40
0.000000
  0
VERTEX
  8
0
 10
2.600000
 20
-0.122000
 30
0.450000
 70
 32
 40
0.000000
  0
VERTEX
  8
0
 10
2.600000
 20
-0.091500
 30
0.452000
 70
 32
 40
0.000000
  0
VERTEX
  8
0
 10
2.600000
 20
-0.061000
 30
0.454000
 70
 32
 40
0.000000
  0
VERTEX
  8
0
 10
2.600000
 20
-0.030500
 30
0.456000
 70
 32
 40
0.000000
  0
VERTEX
  8
0
 10
2.600000
 20
0.000000
 30
0.458000
 70
 32
 40
0.000000
  0
SEQEND
  8
0
  0
POLYLINE
  8
0
 62
6
  6
CONTINUOUS
 66
  1
 70
  8
  0
VERTEX
  8
0
 10
3.900000
 20
0.438000
 30
0.346000
 70
 32
 40
0.000000
  0
VERTEX
  8
0
 10
3.900000
 20
0.394200
 30
0.348000
 70
 32
 40
0.000000
  0
VERTEX
  8
0
 10
3.900000
 20
0.350400
 30
0.350000
 70
 32
 40
0.000000
  0
VERTEX
  8
0
 10
3.900000
 20
0.306600
 30
0.352000
 70
 32
 40
0.000000
  0
VERTEX
  8
0
 10
3.900000
 20
0.262800
 30
0.354000
 70
 32
 40
0.000000
  0
VERTEX
  8
0
 10
3.900000
 20
0.219000
 30
0.356000
 70
 32
 40
0.000000
  0
VERTEX
  8
0
 10
3.900000
 20
0.175200
 30
0.358000
 70
 32
 40
0.000000
  0
VERTEX
  8
0
 10
3.900000
 20
0.131400
 30
0.360000
 70
 32
 40
0.000000
  0
VERTEX
  8
0
 10
3.900000
 20
0.087600
 30
0.362000
 70
 32
 40
0.000000
  0
VERTEX
  8
0
 10
3.900000
 20
0.043800
 30
0.364000
 70
 32
 40
0.000000
  0
VERTEX
  8
0
 10
3.900000
 20
0.000000
 30
0.366000
 70
 32
 40
0.000000
  0
SEQEND
  8
0
  0
POLYLINE
  8
0
 62
6
  6
CONTINUOUS
 66
  1
 70
  8
  0
VERTEX
  8
0
 10
3.900000
 20
-0.438000
 30
0.346000
 70
 32
 40
0.000000
  0
VERTEX
  8
0
 10
3.900000
 20
-0.394200
 30
0.348000
 70
 32
 40
0.000000
  0
VERTEX
  8
0
 10
3.900000
 20
-0.350400
 30
0.350000
 70
 32
 40
0.000000
  0
VERTEX
  8
0
 10
3.900000
 20
-0.306600
 30
0.352000
 70
 32
 40
0.000000
  0
VERTEX
  8
0
 10
3.900000
 20
-0.262800
 30
0.354000
 70
 32
 40
0.000000
  0
VERTEX
  8
0
 10
3.900000
 20
-0.219000
 30
0.356000
 70
 32
 40
0.000000
  0
VERTEX
  8
0
 10
3.900000
 20
-0.175200
 30
0.358000
 70
 32
 40
0.000000
  0
VERTEX
  8
0
 10
3.900000
 20
-0.131400
 30
0.360000
 70
 32
 40
0.000000
  0
VERTEX
  8
0
 10
3.900000
 20
-0.087600
 30
0.362000
 70
 32
 40
0.000000
  0
VERTEX
  8
0
 10
3.900000
 20
-0.043800
 30
0.364000
 70
 32
 40
0.000000
  0
VERTEX
  8
0
 10
3.900000
 20
0.000000
 30
0.366000
 70
 32
 40
0.000000
  0
SEQEND
  8
0
  0
POLYLINE
  8
0
 62
6
  6
CONTINUOUS
 66
  1
 70
  8
  0
VERTEX
  8
0
 10
5.200000
 20
0.424000
 30
0.293000
 70
 32
 40
0.000000
  0
VERTEX
  8
0
 10
5.200000
 20
0.381600
 30
0.295000
 70
 32
 40
0.000000
  0
VERTEX
  8
0
 10
5.200000
 20
0.339200
 30
0.297000
 70
 32
 40
0.000000
  0
VERTEX
  8
0
 10
5.200000
 20
0.296800
 30
0.299000
 70
 32
 40
0.000000
  0
VERTEX
  8
0
 10
5.200000
 20
0.254400
 30
0.301000
 70
 32
 40
0.000000
  0
VERTEX
  8
0
 10
5.200000
 20
0.212000
 30
0.303000
 70
 32
 40
0.000000
  0
VERTEX
  8
0
 10
5.200000
 20
0.169600
 30
0.305000
 70
 32
 40
0.000000
  0
VERTEX
  8
0
 10
5.200000
 20
0.127200
 30
0.307000
 70
 32
 40
0.000000
  0
VERTEX
  8
0
 10
5.200000
 20
0.084800
 30
0.309000
 70
 32
 40
0.000000
  0
VERTEX
  8
0
 10
5.200000
 20
0.042400
 30
0.311000
 70
 32
 40
0.000000
  0
VERTEX
  8
0
 10
5.200000
 20
0.000000
 30
0.313000
 70
 32
 40
0.000000
  0
SEQEND
  8
0
  0
POLYLINE
  8
0
 62
6
  6
CONTINUOUS
 66
  1
 70
  8
  0
VERTEX
  8
0
 10
5.200000
 20
-0.424000
 30
0.293000
 70
 32
 40
0.000000
  0
VERTEX
  8
0
 10
5.200000
 20
-0.381600
 30
0.295000
 70
 32
 40
0.000000
  0
VERTEX
  8
0
 10
5.200000
 20
-0.339200
 30
0.297000
 70
 32
 40
0.000000
  0
VERTEX
  8
0
 10
5.200000
 20
-0.296800
 30
0.299000
 70
 32
 40
0.000000
  0
VERTEX
  8
0
 10
5.200000
 20
-0.254400
 30
0.301000
 70
 32
 40
0.000000
  0
VERTEX
  8
0
 10
5.200000
 20
-0.212000
 30
0.303000
 70
 32
 40
0.000000
  0
VERTEX
  8
0
 10
5.200000
 20
-0.169600
 30
0.305000
 70
 32
 40
0.000000
  0
VERTEX
  8
0
 10
5.200000
 20
-0.127200
 30
0.307000
 70
 32
 40
0.000000
  0
VERTEX
  8
0
 10
5.200000
 20
-0.084800
 30
0.309000
 70
 32
 40
0.000000
  0
VERTEX
  8
0
 10
5.200000
 20
-0.042400
 30
0.311000
 70
 32
 40
0.000000
  0
VERTEX
  8
0
 10
5.200000
 20
0.000000
 30
0.313000
 70
 32
 40
0.000000
  0
SEQEND
  8
0
  0
POLYLINE
  8
0
 62
6
  6
CONTINUOUS
 66
  1
 70
  8
  0
VERTEX
  8
0
 10
6.500000
 20
0.251000
 30
0.263000
 70
 32
 40
0.000000
  0
VERTEX
  8
0
 10
6.500000
 20
0.225900
 30
0.265000
 70
 32
 40
0.000000
  0
VERTEX
  8
0
 10
6.500000
 20
0.200800
 30
0.267000
 70
 32
 40
0.000000
  0
VERTEX
  8
0
 10
6.500000
 20
0.175700
 30
0.269000
 70
 32
 40
0.000000
  0
VERTEX
  8
0
 10
6.500000
 20
0.150600
 30
0.271000
 70
 32
 40
0.000000
  0
VERTEX
  8
0
 10
6.500000
 20
0.125500
 30
0.273000
 70
 32
 40
0.000000
  0
VERTEX
  8
0
 10
6.500000
 20
0.100400
 30
0.275000
 70
 32
 40
0.000000
  0
VERTEX
  8
0
 10
6.500000
 20
0.075300
 30
0.277000
 70
 32
 40
0.000000
  0
VERTEX
  8
0
 10
6.500000
 20
0.050200
 30
0.279000
 70
 32
 40
0.000000
  0
VERTEX
  8
0
 10
6.500000
 20
0.025100
 30
0.281000
 70
 32
 40
0.000000
  0
VERTEX
  8
0
 10
6.500000
 20
0.000000
 30
0.283000
 70
 32
 40
0.000000
  0
SEQEND
  8
0
  0
POLYLINE
  8
0
 62
6
  6
CONTINUOUS
 66
  1
 70
  8
  0
VERTEX
  8
0
 10
6.500000
 20
-0.251000
 30
0.263000
 70
 32
 40
0.000000
  0
VERTEX
  8
0
 10
6.500000
 20
-0.225900
 30
0.265000
 70
 32
 40
0.000000
  0
VERTEX
  8
0
 10
6.500000
 20
-0.200800
 30
0.267000
 70
 32
 40
0.000000
  0
VERTEX
  8
0
 10
6.500000
 20
-0.175700
 30
0.269000
 70
 32
 40
0.000000
  0
VERTEX
  8
0
 10
6.500000
 20
-0.150600
 30
0.271000
 70
 32
 40
0.000000
  0
VERTEX
  8
0
 10
6.500000
 20
-0.125500
 30
0.273000
 70
 32
 40
0.000000
  0
VERTEX
  8
0
 10
6.500000
 20
-0.100400
 30
0.275000
 70
 32
 40
0.000000
  0
VERTEX
  8
0
 10
6.500000
 20
-0.075300
 30
0.277000
 70
 32
 40
0.000000
  0
VERTEX
  8
0
 10
6.500000
 20
-0.050200
 30
0.279000
 70
 32
 40
0.000000
  0
VERTEX
  8
0
 10
6.500000
 20
-0.025100
 30
0.281000
 70
 32
 40
0.000000
  0
VERTEX
  8
0
 10
6.500000
 20
0.000000
 30
0.283000
 70
 32
 40
0.000000
  0
SEQEND
  8
0
  0
POLYLINE
  8
0
 62
15
  6
CONTINUOUS
 66
  1
 70
  8
  0
VERTEX
  8
0
 10
0.000000
 20
0.000000
 30
0.700000
 70
 32
 40
0.000000
  0
VERTEX
  8
0
 10
0.327980
 20
0.004800
 30
0.669570
 70
 32
 40
0.000000
  0
VERTEX
  8
0
 10
0.653780
 20
0.025100
 30
0.637110
 70
 32
 40
0.000000
  0
VERTEX
  8
0
 10
0.977890
 20
0.057870
 30
0.603330
 70
 32
 40
0.000000
  0
VERTEX
  8
0
 10
1.300770
 20
0.100110
 30
0.568920
 70
 32
 40
0.000000
  0
VERTEX
  8
0
 10
1.622910
 20
0.148800
 30
0.534580
 70
 32
 40
0.000000
  0
VERTEX
  8
0
 10
1.944760
 20
0.200930
 30
0.501000
 70
 32
 40
0.000000
  0
VERTEX
  8
0
 10
2.266820
 20
0.253490
 30
0.468880
 70
 32
 40
0.000000
  0
VERTEX
  8
0
 10
2.589550
 20
0.303460
 30
0.438920
 70
 32
 40
0.000000
  0
VERTEX
  8
0
 10
2.913350
 20
0.348130
 30
0.411700
 70
 32
 40
0.000000
  0
VERTEX
  8
0
 10
3.238200
 20
0.386080
 30
0.387280
 70
 32
 40
0.000000
  0
VERTEX
  8
0
 10
3.563990
 20
0.416230
 30
0.365580
 70
 32
 40
0.000000
  0
VERTEX
  8
0
 10
3.890600
 20
0.437530
 30
0.346510
 70
 32
 40
0.000000
  0
VERTEX
  8
0
 10
4.217890
 20
0.449070
 30
0.329970
 70
 32
 40
0.000000
  0
VERTEX
  8
0
 10
4.545550
 20
0.450660
 30
0.315710
 70
 32
 40
0.000000
  0
VERTEX
  8
0
 10
4.873240
 20
0.442290
 30
0.303480
 70
 32
 40
0.000000
  0
VERTEX
  8
0
 10
5.200610
 20
0.423960
 30
0.292980
 70
 32
 40
0.000000
  0
VERTEX
  8
0
 10
5.527320
 20
0.395670
 30
0.283960
 70
 32
 40
0.000000
  0
VERTEX
  8
0
 10
5.853020
 20
0.357410
 30
0.276140
 70
 32
 40
0.000000
  0
VERTEX
  8
0
 10
6.177360
 20
0.309190
 30
0.269240
 70
 32
 40
0.000000
  0
VERTEX
  8
0
 10
6.500000
 20
0.251000
 30
0.263000
 70
 32
 40
0.000000
  0
SEQEND
  8
0
  0
POLYLINE
  8
0
 62
15
  6
CONTINUOUS
 66
  1
 70
  8
  0
VERTEX
  8
0
 10
0.000000
 20
0.000000
 30
0.700000
 70
 32
 40
0.000000
  0
VERTEX
  8
0
 10
0.327980
 20
-0.004800
 30
0.669570
 70
 32
 40
0.000000
  0
VERTEX
  8
0
 10
0.653780
 20
-0.025100
 30
0.637110
 70
 32
 40
0.000000
  0
VERTEX
  8
0
 10
0.977890
 20
-0.057870
 30
0.603330
 70
 32
 40
0.000000
  0
VERTEX
  8
0
 10
1.300770
 20
-0.100110
 30
0.568920
 70
 32
 40
0.000000
  0
VERTEX
  8
0
 10
1.622910
 20
-0.148800
 30
0.534580
 70
 32
 40
0.000000
  0
VERTEX
  8
0
 10
1.944760
 20
-0.200930
 30
0.501000
 70
 32
 40
0.000000
  0
VERTEX
  8
0
 10
2.266820
 20
-0.253490
 30
0.468880
 70
 32
 40
0.000000
  0
VERTEX
  8
0
 10
2.589550
 20
-0.303460
 30
0.438920
 70
 32
 40
0.000000
  0
VERTEX
  8
0
 10
2.913350
 20
-0.348130
 30
0.411700
 70
 32
 40
0.000000
  0
VERTEX
  8
0
 10
3.238200
 20
-0.386080
 30
0.387280
 70
 32
 40
0.000000
  0
VERTEX
  8
0
 10
3.563990
 20
-0.416230
 30
0.365580
 70
 32
 40
0.000000
  0
VERTEX
  8
0
 10
3.890600
 20
-0.437530
 30
0.346510
 70
 32
 40
0.000000
  0
VERTEX
  8
0
 10
4.217890
 20
-0.449070
 30
0.329970
 70
 32
 40
0.000000
  0
VERTEX
  8
0
 10
4.545550
 20
-0.450660
 30
0.315710
 70
 32
 40
0.000000
  0
VERTEX
  8
0
 10
4.873240
 20
-0.442290
 30
0.303480
 70
 32
 40
0.000000
  0
VERTEX
  8
0
 10
5.200610
 20
-0.423960
 30
0.292980
 70
 32
 40
0.000000
  0
VERTEX
  8
0
 10
5.527320
 20
-0.395670
 30
0.283960
 70
 32
 40
0.000000
  0
VERTEX
  8
0
 10
5.853020
 20
-0.357410
 30
0.276140
 70
 32
 40
0.000000
  0
VERTEX
  8
0
 10
6.177360
 20
-0.309190
 30
0.269240
 70
 32
 40
0.000000
  0
VERTEX
  8
0
 10
6.500000
 20
-0.251000
 30
0.263000
 70
 32
 40
0.000000
  0
SEQEND
  8
0
  0
POLYLINE
  8
0
 62
15
  6
CONTINUOUS
 66
  1
 70
  8
  0
VERTEX
  8
0
 10
0.000000
 20
0.000000
 30
0.700000
 70
 32
 40
0.000000
  0
VERTEX
  8
0
 10
0.326880
 20
0.003690
 30
0.671340
 70
 32
 40
0.000000
  0
VERTEX
  8
0
 10
0.652240
 20
0.019870
 30
0.640090
 70
 32
 40
0.000000
  0
VERTEX
  8
0
 10
0.976420
 20
0.046110
 30
0.607060
 70
 32
 40
0.000000
  0
VERTEX
  8
0
 10
1.299740
 20
0.079970
 30
0.573030
 70
 32
 40
0.000000
  0
VERTEX
  8
0
 10
1.622560
 20
0.119020
 30
0.538790
 70
 32
 40
0.000000
  0
VERTEX
  8
0
 10
1.945210
 20
0.160830
 30
0.505140
 70
 32
 40
0.000000
  0
VERTEX
  8
0
 10
2.268040
 20
0.202960
 30
0.472870
 70
 32
 40
0.000000
  0
VERTEX
  8
0
 10
2.591370
 20
0.242980
 30
0.442770
 70
 32
 40
0.000000
  0
VERTEX
  8
0
 10
2.915480
 20
0.278710
 30
0.415480
 70
 32
 40
0.000000
  0
VERTEX
  8
0
 10
3.240370
 20
0.309030
 30
0.391080
 70
 32
 40
0.000000
  0
VERTEX
  8
0
 10
3.565930
 20
0.333090
 30
0.369430
 70
 32
 40
0.000000
  0
VERTEX
  8
0
 10
3.892080
 20
0.350080
 30
0.350430
 70
 32
 40
0.000000
  0
VERTEX
  8
0
 10
4.218710
 20
0.359290
 30
0.333940
 70
 32
 40
0.000000
  0
VERTEX
  8
0
 10
4.545610
 20
0.360560
 30
0.319720
 70
 32
 40
0.000000
  0
VERTEX
  8
0
 10
4.872550
 20
0.353880
 30
0.307510
 70
 32
 40
0.000000
  0
VERTEX
  8
0
 10
5.199320
 20
0.339240
 30
0.297020
 70
 32
 40
0.000000
  0
VERTEX
  8
0
 10
5.525670
 20
0.316620
 30
0.288000
 70
 32
 40
0.000000
  0
VERTEX
  8
0
 10
5.851390
 20
0.286020
 30
0.280160
 70
 32
 40
0.000000
  0
VERTEX
  8
0
 10
6.176240
 20
0.247410
 30
0.273260
 70
 32
 40
0.000000
  0
VERTEX
  8
0
 10
6.500000
 20
0.200800
 30
0.267000
 70
 32
 40
0.000000
  0
SEQEND
  8
0
  0
POLYLINE
  8
0
 62
15
  6
CONTINUOUS
 66
  1
 70
  8
  0
VERTEX
  8
0
 10
0.000000
 20
0.000000
 30
0.700000
 70
 32
 40
0.000000
  0
VERTEX
  8
0
 10
0.326880
 20
-0.003690
 30
0.671340
 70
 32
 40
0.000000
  0
VERTEX
  8
0
 10
0.652240
 20
-0.019870
 30
0.640090
 70
 32
 40
0.000000
  0
VERTEX
  8
0
 10
0.976420
 20
-0.046110
 30
0.607060
 70
 32
 40
0.000000
  0
VERTEX
  8
0
 10
1.299740
 20
-0.079970
 30
0.573030
 70
 32
 40
0.000000
  0
VERTEX
  8
0
 10
1.622560
 20
-0.119020
 30
0.538790
 70
 32
 40
0.000000
  0
VERTEX
  8
0
 10
1.945210
 20
-0.160830
 30
0.505140
 70
 32
 40
0.000000
  0
VERTEX
  8
0
 10
2.268040
 20
-0.202960
 30
0.472870
 70
 32
 40
0.000000
  0
VERTEX
  8
0
 10
2.591370
 20
-0.242980
 30
0.442770
 70
 32
 40
0.000000
  0
VERTEX
  8
0
 10
2.915480
 20
-0.278710
 30
0.415480
 70
 32
 40
0.000000
  0
VERTEX
  8
0
 10
3.240370
 20
-0.309030
 30
0.391080
 70
 32
 40
0.000000
  0
VERTEX
  8
0
 10
3.565930
 20
-0.333090
 30
0.369430
 70
 32
 40
0.000000
  0
VERTEX
  8
0
 10
3.892080
 20
-0.350080
 30
0.350430
 70
 32
 40
0.000000
  0
VERTEX
  8
0
 10
4.218710
 20
-0.359290
 30
0.333940
 70
 32
 40
0.000000
  0
VERTEX
  8
0
 10
4.545610
 20
-0.360560
 30
0.319720
 70
 32
 40
0.000000
  0
VERTEX
  8
0
 10
4.872550
 20
-0.353880
 30
0.307510
 70
 32
 40
0.000000
  0
VERTEX
  8
0
 10
5.199320
 20
-0.339240
 30
0.297020
 70
 32
 40
0.000000
  0
VERTEX
  8
0
 10
5.525670
 20
-0.316620
 30
0.288000
 70
 32
 40
0.000000
  0
VERTEX
  8
0
 10
5.851390
 20
-0.286020
 30
0.280160
 70
 32
 40
0.000000
  0
VERTEX
  8
0
 10
6.176240
 20
-0.247410
 30
0.273260
 70
 32
 40
0.000000
  0
VERTEX
  8
0
 10
6.500000
 20
-0.200800
 30
0.267000
 70
 32
 40
0.000000
  0
SEQEND
  8
0
  0
POLYLINE
  8
0
 62
15
  6
CONTINUOUS
 66
  1
 70
  8
  0
VERTEX
  8
0
 10
0.000000
 20
0.000000
 30
0.700000
 70
 32
 40
0.000000
  0
VERTEX
  8
0
 10
0.326050
 20
0.002680
 30
0.673080
 70
 32
 40
0.000000
  0
VERTEX
  8
0
 10
0.651070
 20
0.014790
 30
0.643030
 70
 32
 40
0.000000
  0
VERTEX
  8
0
 10
0.975310
 20
0.034480
 30
0.610750
 70
 32
 40
0.000000
  0
VERTEX
  8
0
 10
1.298990
 20
0.059910
 30
0.577110
 70
 32
 40
0.000000
  0
VERTEX
  8
0
 10
1.622350
 20
0.089260
 30
0.542990
 70
 32
 40
0.000000
  0
VERTEX
  8
0
 10
1.945630
 20
0.120680
 30
0.509290
 70
 32
 40
0.000000
  0
VERTEX
  8
0
 10
2.269040
 20
0.152330
 30
0.476870
 70
 32
 40
0.000000
  0
VERTEX
  8
0
 10
2.592840
 20
0.182370
 30
0.446640
 70
 32
 40
0.000000
  0
VERTEX
  8
0
 10
2.917200
 20
0.209160
 30
0.419300
 70
 32
 40
0.000000
  0
VERTEX
  8
0
 10
3.242110
 20
0.231870
 30
0.394900
 70
 32
 40
0.000000
  0
VERTEX
  8
0
 10
3.567490
 20
0.249880
 30
0.373300
 70
 32
 40
0.000000
  0
VERTEX
  8
0
 10
3.893270
 20
0.262600
 30
0.354360
 70
 32
 40
0.000000
  0
VERTEX
  8
0
 10
4.219370
 20
0.269490
 30
0.337920
 70
 32
 40
0.000000
  0
VERTEX
  8
0
 10
4.545670
 20
0.270440
 30
0.323730
 70
 32
 40
0.000000
  0
VERTEX
  8
0
 10
4.872030
 20
0.265440
 30
0.311530
 70
 32
 40
0.000000
  0
VERTEX
  8
0
 10
5.198320
 20
0.254470
 30
0.301050
 70
 32
 40
0.000000
  0
VERTEX
  8
0
 10
5.524390
 20
0.237520
 30
0.292020
 70
 32
 40
0.000000
  0
VERTEX
  8
0
 10
5.850120
 20
0.214560
 30
0.284180
 70
 32
 40
0.000000
  0
VERTEX
  8
0
 10
6.175370
 20
0.185600
 30
0.277260
 70
 32
 40
0.000000
  0
VERTEX
  8
0
 10
6.500000
 20
0.150600
 30
0.271000
 70
 32
 40
0.000000
  0
SEQEND
  8
0
  0
POLYLINE
  8
0
 62
15
  6
CONTINUOUS
 66
  1
 70
  8
  0
VERTEX
  8
0
 10
0.000000
 20
0.000000
 30
0.700000
 70
 32
 40
0.000000
  0
VERTEX
  8
0
 10
0.326050
 20
-0.002680
 30
0.673080
 70
 32
 40
0.000000
  0
VERTEX
  8
0
 10
0.651070
 20
-0.014790
 30
0.643030
 70
 32
 40
0.000000
  0
VERTEX
  8
0
 10
0.975310
 20
-0.034480
 30
0.610750
 70
 32
 40
0.000000
  0
VERTEX
  8
0
 10
1.298990
 20
-0.059910
 30
0.577110
 70
 32
 40
0.000000
  0
VERTEX
  8
0
 10
1.622350
 20
-0.089260
 30
0.542990
 70
 32
 40
0.000000
  0
VERTEX
  8
0
 10
1.945630
 20
-0.120680
 30
0.509290
 70
 32
 40
0.000000
  0
VERTEX
  8
0
 10
2.269040
 20
-0.152330
 30
0.476870
 70
 32
 40
0.000000
  0
VERTEX
  8
0
 10
2.592840
 20
-0.182370
 30
0.446640
 70
 32
 40
0.000000
  0
VERTEX
  8
0
 10
2.917200
 20
-0.209160
 30
0.419300
 70
 32
 40
0.000000
  0
VERTEX
  8
0
 10
3.242110
 20
-0.231870
 30
0.394900
 70
 32
 40
0.000000
  0
VERTEX
  8
0
 10
3.567490
 20
-0.249880
 30
0.373300
 70
 32
 40
0.000000
  0
VERTEX
  8
0
 10
3.893270
 20
-0.262600
 30
0.354360
 70
 32
 40
0.000000
  0
VERTEX
  8
0
 10
4.219370
 20
-0.269490
 30
0.337920
 70
 32
 40
0.000000
  0
VERTEX
  8
0
 10
4.545670
 20
-0.270440
 30
0.323730
 70
 32
 40
0.000000
  0
VERTEX
  8
0
 10
4.872030
 20
-0.265440
 30
0.311530
 70
 32
 40
0.000000
  0
VERTEX
  8
0
 10
5.198320
 20
-0.254470
 30
0.301050
 70
 32
 40
0.000000
  0
VERTEX
  8
0
 10
5.524390
 20
-0.237520
 30
0.292020
 70
 32
 40
0.000000
  0
VERTEX
  8
0
 10
5.850120
 20
-0.214560
 30
0.284180
 70
 32
 40
0.000000
  0
VERTEX
  8
0
 10
6.175370
 20
-0.185600
 30
0.277260
 70
 32
 40
0.000000
  0
VERTEX
  8
0
 10
6.500000
 20
-0.150600
 30
0.271000
 70
 32
 40
0.000000
  0
SEQEND
  8
0
  0
POLYLINE
  8
0
 62
15
  6
CONTINUOUS
 66
  1
 70
  8
  0
VERTEX
  8
0
 10
0.000000
 20
0.000000
 30
0.700000
 70
 32
 40
0.000000
  0
VERTEX
  8
0
 10
0.325480
 20
0.001750
 30
0.674790
 70
 32
 40
0.000000
  0
VERTEX
  8
0
 10
0.650280
 20
0.009800
 30
0.645930
 70
 32
 40
0.000000
  0
VERTEX
  8
0
 10
0.974580
 20
0.022940
 30
0.614400
 70
 32
 40
0.000000
  0
VERTEX
  8
0
 10
1.298530
 20
0.039920
 30
0.581150
 70
 32
 40
0.000000
  0
VERTEX
  8
0
 10
1.622280
 20
0.059510
 30
0.547180
 70
 32
 40
0.000000
  0
VERTEX
  8
0
 10
1.946000
 20
0.080480
 30
0.513430
 70
 32
 40
0.000000
  0
VERTEX
  8
0
 10
2.269840
 20
0.101600
 30
0.480900
 70
 32
 40
0.000000
  0
VERTEX
  8
0
 10
2.593960
 20
0.121640
 30
0.450540
 70
 32
 40
0.000000
  0
VERTEX
  8
0
 10
2.918490
 20
0.139500
 30
0.423150
 70
 32
 40
0.000000
  0
VERTEX
  8
0
 10
3.243400
 20
0.154630
 30
0.398760
 70
 32
 40
0.000000
  0
VERTEX
  8
0
 10
3.568650
 20
0.166620
 30
0.377200
 70
 32
 40
0.000000
  0
VERTEX
  8
0
 10
3.894160
 20
0.175080
 30
0.358320
 70
 32
 40
0.000000
  0
VERTEX
  8
0
 10
4.219880
 20
0.179670
 30
0.341910
 70
 32
 40
0.000000
  0
VERTEX
  8
0
 10
4.545750
 20
0.180310
 30
0.327740
 70
 32
 40
0.000000
  0
VERTEX
  8
0
 10
4.871690
 20
0.176980
 30
0.315550
 70
 32
 40
0.000000
  0
VERTEX
  8
0
 10
5.197620
 20
0.169670
 30
0.305070
 70
 32
 40
0.000000
  0
VERTEX
  8
0
 10
5.523500
 20
0.158370
 30
0.296040
 70
 32
 40
0.000000
  0
VERTEX
  8
0
 10
5.849230
 20
0.143070
 30
0.288190
 70
 32
 40
0.000000
  0
VERTEX
  8
0
 10
6.174750
 20
0.123750
 30
0.281270
 70
 32
 40
0.000000
  0
VERTEX
  8
0
 10
6.500000
 20
0.100400
 30
0.275000
 70
 32
 40
0.000000
  0
SEQEND
  8
0
  0
POLYLINE
  8
0
 62
15
  6
CONTINUOUS
 66
  1
 70
  8
  0
VERTEX
  8
0
 10
0.000000
 20
0.000000
 30
0.700000
 70
 32
 40
0.000000
  0
VERTEX
  8
0
 10
0.325480
 20
-0.001750
 30
0.674790
 70
 32
 40
0.000000
  0
VERTEX
  8
0
 10
0.650280
 20
-0.009800
 30
0.645930
 70
 32
 40
0.000000
  0
VERTEX
  8
0
 10
0.974580
 20
-0.022940
 30
0.614400
 70
 32
 40
0.000000
  0
VERTEX
  8
0
 10
1.298530
 20
-0.039920
 30
0.581150
 70
 32
 40
0.000000
  0
VERTEX
  8
0
 10
1.622280
 20
-0.059510
 30
0.547180
 70
 32
 40
0.000000
  0
VERTEX
  8
0
 10
1.946000
 20
-0.080480
 30
0.513430
 70
 32
 40
0.000000
  0
VERTEX
  8
0
 10
2.269840
 20
-0.101600
 30
0.480900
 70
 32
 40
0.000000
  0
VERTEX
  8
0
 10
2.593960
 20
-0.121640
 30
0.450540
 70
 32
 40
0.000000
  0
VERTEX
  8
0
 10
2.918490
 20
-0.139500
 30
0.423150
 70
 32
 40
0.000000
  0
VERTEX
  8
0
 10
3.243400
 20
-0.154630
 30
0.398760
 70
 32
 40
0.000000
  0
VERTEX
  8
0
 10
3.568650
 20
-0.166620
 30
0.377200
 70
 32
 40
0.000000
  0
VERTEX
  8
0
 10
3.894160
 20
-0.175080
 30
0.358320
 70
 32
 40
0.000000
  0
VERTEX
  8
0
 10
4.219880
 20
-0.179670
 30
0.341910
 70
 32
 40
0.000000
  0
VERTEX
  8
0
 10
4.545750
 20
-0.180310
 30
0.327740
 70
 32
 40
0.000000
  0
VERTEX
  8
0
 10
4.871690
 20
-0.176980
 30
0.315550
 70
 32
 40
0.000000
  0
VERTEX
  8
0
 10
5.197620
 20
-0.169670
 30
0.305070
 70
 32
 40
0.000000
  0
VERTEX
  8
0
 10
5.523500
 20
-0.158370
 30
0.296040
 70
 32
 40
0.000000
  0
VERTEX
  8
0
 10
5.849230
 20
-0.143070
 30
0.288190
 70
 32
 40
0.000000
  0
VERTEX
  8
0
 10
6.174750
 20
-0.123750
 30
0.281270
 70
 32
 40
0.000000
  0
VERTEX
  8
0
 10
6.500000
 20
-0.100400
 30
0.275000
 70
 32
 40
0.000000
  0
SEQEND
  8
0
  0
POLYLINE
  8
0
 62
15
  6
CONTINUOUS
 66
  1
 70
  8
  0
VERTEX
  8
0
 10
0.000000
 20
0.000000
 30
0.700000
 70
 32
 40
0.000000
  0
VERTEX
  8
0
 10
0.325180
 20
0.000860
 30
0.676470
 70
 32
 40
0.000000
  0
VERTEX
  8
0
 10
0.649890
 20
0.004890
 30
0.648790
 70
 32
 40
0.000000
  0
VERTEX
  8
0
 10
0.974240
 20
0.011460
 30
0.618000
 70
 32
 40
0.000000
  0
VERTEX
  8
0
 10
1.298350
 20
0.019950
 30
0.585170
 70
 32
 40
0.000000
  0
VERTEX
  8
0
 10
1.622340
 20
0.029760
 30
0.551350
 70
 32
 40
0.000000
  0
VERTEX
  8
0
 10
1.946320
 20
0.040250
 30
0.517590
 70
 32
 40
0.000000
  0
VERTEX
  8
0
 10
2.270400
 20
0.050820
 30
0.484940
 70
 32
 40
0.000000
  0
VERTEX
  8
0
 10
2.594710
 20
0.060840
 30
0.454470
 70
 32
 40
0.000000
  0
VERTEX
  8
0
 10
2.919340
 20
0.069770
 30
0.427030
 70
 32
 40
0.000000
  0
VERTEX
  8
0
 10
3.244250
 20
0.077330
 30
0.402650
 70
 32
 40
0.000000
  0
VERTEX
  8
0
 10
3.569400
 20
0.083320
 30
0.381130
 70
 32
 40
0.000000
  0
VERTEX
  8
0
 10
3.894750
 20
0.087550
 30
0.362280
 70
 32
 40
0.000000
  0
VERTEX
  8
0
 10
4.220240
 20
0.089840
 30
0.345910
 70
 32
 40
0.000000
  0
VERTEX
  8
0
 10
4.545830
 20
0.090160
 30
0.331760
 70
 32
 40
0.000000
  0
VERTEX
  8
0
 10
4.871510
 20
0.088490
 30
0.319570
 70
 32
 40
0.000000
  0
VERTEX
  8
0
 10
5.197230
 20
0.084840
 30
0.309080
 70
 32
 40
0.000000
  0
VERTEX
  8
0
 10
5.522980
 20
0.079190
 30
0.300040
 70
 32
 40
0.000000
  0
VERTEX
  8
0
 10
5.848700
 20
0.071540
 30
0.292190
 70
 32
 40
0.000000
  0
VERTEX
  8
0
 10
6.174390
 20
0.061880
 30
0.285260
 70
 32
 40
0.000000
  0
VERTEX
  8
0
 10
6.500000
 20
0.050200
 30
0.279000
 70
 32
 40
0.000000
  0
SEQEND
  8
0
  0
POLYLINE
  8
0
 62
15
  6
CONTINUOUS
 66
  1
 70
  8
  0
VERTEX
  8
0
 10
0.000000
 20
0.000000
 30
0.700000
 70
 32
 40
0.000000
  0
VERTEX
  8
0
 10
0.325180
 20
-0.000860
 30
0.676470
 70
 32
 40
0.000000
  0
VERTEX
  8
0
 10
0.649890
 20
-0.004890
 30
0.648790
 70
 32
 40
0.000000
  0
VERTEX
  8
0
 10
0.974240
 20
-0.011460
 30
0.618000
 70
 32
 40
0.000000
  0
VERTEX
  8
0
 10
1.298350
 20
-0.019950
 30
0.585170
 70
 32
 40
0.000000
  0
VERTEX
  8
0
 10
1.622340
 20
-0.029760
 30
0.551350
 70
 32
 40
0.000000
  0
VERTEX
  8
0
 10
1.946320
 20
-0.040250
 30
0.517590
 70
 32
 40
0.000000
  0
VERTEX
  8
0
 10
2.270400
 20
-0.050820
 30
0.484940
 70
 32
 40
0.000000
  0
VERTEX
  8
0
 10
2.594710
 20
-0.060840
 30
0.454470
 70
 32
 40
0.000000
  0
VERTEX
  8
0
 10
2.919340
 20
-0.069770
 30
0.427030
 70
 32
 40
0.000000
  0
VERTEX
  8
0
 10
3.244250
 20
-0.077330
 30
0.402650
 70
 32
 40
0.000000
  0
VERTEX
  8
0
 10
3.569400
 20
-0.083320
 30
0.381130
 70
 32
 40
0.000000
  0
VERTEX
  8
0
 10
3.894750
 20
-0.087550
 30
0.362280
 70
 32
 40
0.000000
  0
VERTEX
  8
0
 10
4.220240
 20
-0.089840
 30
0.345910
 70
 32
 40
0.000000
  0
VERTEX
  8
0
 10
4.545830
 20
-0.090160
 30
0.331760
 70
 32
 40
0.000000
  0
VERTEX
  8
0
 10
4.871510
 20
-0.088490
 30
0.319570
 70
 32
 40
0.000000
  0
VERTEX
  8
0
 10
5.197230
 20
-0.084840
 30
0.309080
 70
 32
 40
0.000000
  0
VERTEX
  8
0
 10
5.522980
 20
-0.079190
 30
0.300040
 70
 32
 40
0.000000
  0
VERTEX
  8
0
 10
5.848700
 20
-0.071540
 30
0.292190
 70
 32
 40
0.000000
  0
VERTEX
  8
0
 10
6.174390
 20
-0.061880
 30
0.285260
 70
 32
 40
0.000000
  0
VERTEX
  8
0
 10
6.500000
 20
-0.050200
 30
0.279000
 70
 32
 40
0.000000
  0
SEQEND
  8
0
  0
POLYLINE
  8
0
 62
15
  6
CONTINUOUS
 66
  1
 70
  8
  0
VERTEX
  8
0
 10
0.000000
 20
0.000000
 30
0.700000
 70
 32
 40
0.000000
  0
VERTEX
  8
0
 10
0.325160
 20
0.000000
 30
0.678120
 70
 32
 40
0.000000
  0
VERTEX
  8
0
 10
0.649890
 20
0.000000
 30
0.651600
 70
 32
 40
0.000000
  0
VERTEX
  8
0
 10
0.974300
 20
0.000000
 30
0.621570
 70
 32
 40
0.000000
  0
VERTEX
  8
0
 10
1.298480
 20
0.000000
 30
0.589160
 70
 32
 40
0.000000
  0
VERTEX
  8
0
 10
1.622540
 20
0.000000
 30
0.555500
 70
 32
 40
0.000000
  0
VERTEX
  8
0
 10
1.946600
 20
0.000000
 30
0.521740
 70
 32
 40
0.000000
  0
VERTEX
  8
0
 10
2.270750
 20
0.000000
 30
0.489010
 70
 32
 40
0.000000
  0
VERTEX
  8
0
 10
2.595100
 20
0.000000
 30
0.458440
 70
 32
 40
0.000000
  0
VERTEX
  8
0
 10
2.919740
 20
0.000000
 30
0.430950
 70
 32
 40
0.000000
  0
VERTEX
  8
0
 10
3.244640
 20
0.000000
 30
0.406570
 70
 32
 40
0.000000
  0
VERTEX
  8
0
 10
3.569760
 20
0.000000
 30
0.385080
 70
 32
 40
0.000000
  0
VERTEX
  8
0
 10
3.895040
 20
0.000000
 30
0.366270
 70
 32
 40
0.000000
  0
VERTEX
  8
0
 10
4.220440
 20
0.000000
 30
0.349910
 70
 32
 40
0.000000
  0
VERTEX
  8
0
 10
4.545930
 20
0.000000
 30
0.335770
 70
 32
 40
0.000000
  0
VERTEX
  8
0
 10
4.871510
 20
0.000000
 30
0.323580
 70
 32
 40
0.000000
  0
VERTEX
  8
0
 10
5.197150
 20
0.000000
 30
0.313090
 70
 32
 40
0.000000
  0
VERTEX
  8
0
 10
5.522840
 20
0.000000
 30
0.304040
 70
 32
 40
0.000000
  0
VERTEX
  8
0
 10
5.848550
 20
0.000000
 30
0.296180
 70
 32
 40
0.000000
  0
VERTEX
  8
0
 10
6.174280
 20
0.000000
 30
0.289250
 70
 32
 40
0.000000
  0
VERTEX
  8
0
 10
6.500000
 20
0.000000
 30
0.283000
 70
 32
 40
0.000000
  0
SEQEND
  8
0
  0
POLYLINE
  8
0
 62
15
  6
CONTINUOUS
 66
  1
 70
  8
  0
VERTEX
  8
0
 10
0.000000
 20
0.000000
 30
0.700000
 70
 32
 40
0.000000
  0
VERTEX
  8
0
 10
0.325160
 20
0.000000
 30
0.678120
 70
 32
 40
0.000000
  0
VERTEX
  8
0
 10
0.649890
 20
0.000000
 30
0.651600
 70
 32
 40
0.000000
  0
VERTEX
  8
0
 10
0.974300
 20
0.000000
 30
0.621570
 70
 32
 40
0.000000
  0
VERTEX
  8
0
 10
1.298480
 20
0.000000
 30
0.589160
 70
 32
 40
0.000000
  0
VERTEX
  8
0
 10
1.622540
 20
0.000000
 30
0.555500
 70
 32
 40
0.000000
  0
VERTEX
  8
0
 10
1.946600
 20
0.000000
 30
0.521740
 70
 32
 40
0.000000
  0
VERTEX
  8
0
 10
2.270750
 20
0.000000
 30
0.489010
 70
 32
 40
0.000000
  0
VERTEX
  8
0
 10
2.595100
 20
0.000000
 30
0.458440
 70
 32
 40
0.000000
  0
VERTEX
  8
0
 10
2.919740
 20
0.000000
 30
0.430950
 70
 32
 40
0.000000
  0
VERTEX
  8
0
 10
3.244640
 20
0.000000
 30
0.406570
 70
 32
 40
0.000000
  0
VERTEX
  8
0
 10
3.569760
 20
0.000000
 30
0.385080
 70
 32
 40
0.000000
  0
VERTEX
  8
0
 10
3.895040
 20
0.000000
 30
0.366270
 70
 32
 40
0.000000
  0
VERTEX
  8
0
 10
4.220440
 20
0.000000
 30
0.349910
 70
 32
 40
0.000000
  0
VERTEX
  8
0
 10
4.545930
 20
0.000000
 30
0.335770
 70
 32
 40
0.000000
  0
VERTEX
  8
0
 10
4.871510
 20
0.000000
 30
0.323580
 70
 32
 40
0.000000
  0
VERTEX
  8
0
 10
5.197150
 20
0.000000
 30
0.313090
 70
 32
 40
0.000000
  0
VERTEX
  8
0
 10
5.522840
 20
0.000000
 30
0.304040
 70
 32
 40
0.000000
  0
VERTEX
  8
0
 10
5.848550
 20
0.000000
 30
0.296180
 70
 32
 40
0.000000
  0
VERTEX
  8
0
 10
6.174280
 20
0.000000
 30
0.289250
 70
 32
 40
0.000000
  0
VERTEX
  8
0
 10
6.500000
 20
0.000000
 30
0.283000
 70
 32
 40
0.000000
  0
SEQEND
  8
0
  0
POLYLINE
  8
0
 62
11
  6
CONTINUOUS
 66
  1
 70
  8
  0
VERTEX
  8
0
 10
0.000000
 20
0.029000
 30
0.318000
 70
 32
 40
0.000000
  0
VERTEX
  8
0
 10
0.000000
 20
0.026010
 30
0.257580
 70
 32
 40
0.000000
  0
VERTEX
  8
0
 10
0.000000
 20
0.023040
 30
0.203520
 70
 32
 40
0.000000
  0
VERTEX
  8
0
 10
0.000000
 20
0.020090
 30
0.155820
 70
 32
 40
0.000000
  0
VERTEX
  8
0
 10
0.000000
 20
0.017160
 30
0.114480
 70
 32
 40
0.000000
  0
VERTEX
  8
0
 10
0.000000
 20
0.014250
 30
0.079500
 70
 32
 40
0.000000
  0
VERTEX
  8
0
 10
0.000000
 20
0.011360
 30
0.050880
 70
 32
 40
0.000000
  0
VERTEX
  8
0
 10
0.000000
 20
0.008490
 30
0.028620
 70
 32
 40
0.000000
  0
VERTEX
  8
0
 10
0.000000
 20
0.005640
 30
0.012720
 70
 32
 40
0.000000
  0
VERTEX
  8
0
 10
0.000000
 20
0.002810
 30
0.003180
 70
 32
 40
0.000000
  0
VERTEX
  8
0
 10
0.000000
 20
0.000000
 30
0.000000
 70
 32
 40
0.000000
  0
SEQEND
  8
0
  0
POLYLINE
  8
0
 62
11
  6
CONTINUOUS
 66
  1
 70
  8
  0
VERTEX
  8
0
 10
0.000000
 20
-0.029000
 30
0.318000
 70
 32
 40
0.000000
  0
VERTEX
  8
0
 10
0.000000
 20
-0.026010
 30
0.257580
 70
 32
 40
0.000000
  0
VERTEX
  8
0
 10
0.000000
 20
-0.023040
 30
0.203520
 70
 32
 40
0.000000
  0
VERTEX
  8
0
 10
0.000000
 20
-0.020090
 30
0.155820
 70
 32
 40
0.000000
  0
VERTEX
  8
0
 10
0.000000
 20
-0.017160
 30
0.114480
 70
 32
 40
0.000000
  0
VERTEX
  8
0
 10
0.000000
 20
-0.014250
 30
0.079500
 70
 32
 40
0.000000
  0
VERTEX
  8
0
 10
0.000000
 20
-0.011360
 30
0.050880
 70
 32
 40
0.000000
  0
VERTEX
  8
0
 10
0.000000
 20
-0.008490
 30
0.028620
 70
 32
 40
0.000000
  0
VERTEX
  8
0
 10
0.000000
 20
-0.005640
 30
0.012720
 70
 32
 40
0.000000
  0
VERTEX
  8
0
 10
0.000000
 20
-0.002810
 30
0.003180
 70
 32
 40
0.000000
  0
VERTEX
  8
0
 10
0.000000
 20
0.000000
 30
0.000000
 70
 32
 40
0.000000
  0
SEQEND
  8
0
  0
POLYLINE
  8
0
 62
11
  6
CONTINUOUS
 66
  1
 70
  8
  0
VERTEX
  8
0
 10
0.650000
 20
0.176360
 30
0.305500
 70
 32
 40
0.000000
  0
VERTEX
  8
0
 10
0.650000
 20
0.169770
 30
0.219050
 70
 32
 40
0.000000
  0
VERTEX
  8
0
 10
0.650000
 20
0.161120
 30
0.143510
 70
 32
 40
0.000000
  0
VERTEX
  8
0
 10
0.650000
 20
0.150420
 30
0.078880
 70
 32
 40
0.000000
  0
VERTEX
  8
0
 10
0.650000
 20
0.137650
 30
0.025150
 70
 32
 40
0.000000
  0
VERTEX
  8
0
 10
0.650000
 20
0.122830
 30
-0.017650
 70
 32
 40
0.000000
  0
VERTEX
  8
0
 10
0.650000
 20
0.105710
 30
-0.050290
 70
 32
 40
0.000000
  0
VERTEX
  8
0
 10
0.650000
 20
0.084890
 30
-0.075560
 70
 32
 40
0.000000
  0
VERTEX
  8
0
 10
0.650000
 20
0.060330
 30
-0.093600
 70
 32
 40
0.000000
  0
VERTEX
  8
0
 10
0.650000
 20
0.032030
 30
-0.104400
 70
 32
 40
0.000000
  0
VERTEX
  8
0
 10
0.650000
 20
0.000000
 30
-0.107950
 70
 32
 40
0.000000
  0
SEQEND
  8
0
  0
POLYLINE
  8
0
 62
11
  6
CONTINUOUS
 66
  1
 70
  8
  0
VERTEX
  8
0
 10
0.650000
 20
-0.176360
 30
0.305500
 70
 32
 40
0.000000
  0
VERTEX
  8
0
 10
0.650000
 20
-0.169770
 30
0.219050
 70
 32
 40
0.000000
  0
VERTEX
  8
0
 10
0.650000
 20
-0.161120
 30
0.143510
 70
 32
 40
0.000000
  0
VERTEX
  8
0
 10
0.650000
 20
-0.150420
 30
0.078880
 70
 32
 40
0.000000
  0
VERTEX
  8
0
 10
0.650000
 20
-0.137650
 30
0.025150
 70
 32
 40
0.000000
  0
VERTEX
  8
0
 10
0.650000
 20
-0.122830
 30
-0.017650
 70
 32
 40
0.000000
  0
VERTEX
  8
0
 10
0.650000
 20
-0.105710
 30
-0.050290
 70
 32
 40
0.000000
  0
VERTEX
  8
0
 10
0.650000
 20
-0.084890
 30
-0.075560
 70
 32
 40
0.000000
  0
VERTEX
  8
0
 10
0.650000
 20
-0.060330
 30
-0.093600
 70
 32
 40
0.000000
  0
VERTEX
  8
0
 10
0.650000
 20
-0.032030
 30
-0.104400
 70
 32
 40
0.000000
  0
VERTEX
  8
0
 10
0.650000
 20
0.000000
 30
-0.107950
 70
 32
 40
0.000000
  0
SEQEND
  8
0
  0
POLYLINE
  8
0
 62
11
  6
CONTINUOUS
 66
  1
 70
  8
  0
VERTEX
  8
0
 10
1.300000
 20
0.301000
 30
0.293000
 70
 32
 40
0.000000
  0
VERTEX
  8
0
 10
1.300000
 20
0.297990
 30
0.198950
 70
 32
 40
0.000000
  0
VERTEX
  8
0
 10
1.300000
 20
0.288960
 30
0.114810
 70
 32
 40
0.000000
  0
VERTEX
  8
0
 10
1.300000
 20
0.273920
 30
0.040560
 70
 32
 40
0.000000
  0
VERTEX
  8
0
 10
1.300000
 20
0.252850
 30
-0.023790
 70
 32
 40
0.000000
  0
VERTEX
  8
0
 10
1.300000
 20
0.225750
 30
-0.078250
 70
 32
 40
0.000000
  0
VERTEX
  8
0
 10
1.300000
 20
0.192640
 30
-0.122800
 70
 32
 40
0.000000
  0
VERTEX
  8
0
 10
1.300000
 20
0.153510
 30
-0.157450
 70
 32
 40
0.000000
  0
VERTEX
  8
0
 10
1.300000
 20
0.108360
 30
-0.182200
 70
 32
 40
0.000000
  0
VERTEX
  8
0
 10
1.300000
 20
0.057190
 30
-0.197050
 70
 32
 40
0.000000
  0
VERTEX
  8
0
 10
1.300000
 20
0.000000
 30
-0.202000
 70
 32
 40
0.000000
  0
SEQEND
  8
0
  0
POLYLINE
  8
0
 62
11
  6
CONTINUOUS
 66
  1
 70
  8
  0
VERTEX
  8
0
 10
1.300000
 20
-0.301000
 30
0.293000
 70
 32
 40
0.000000
  0
VERTEX
  8
0
 10
1.300000
 20
-0.297990
 30
0.198950
 70
 32
 40
0.000000
  0
VERTEX
  8
0
 10
1.300000
 20
-0.288960
 30
0.114810
 70
 32
 40
0.000000
  0
VERTEX
  8
0
 10
1.300000
 20
-0.273920
 30
0.040560
 70
 32
 40
0.000000
  0
VERTEX
  8
0
 10
1.300000
 20
-0.252850
 30
-0.023790
 70
 32
 40
0.000000
  0
VERTEX
  8
0
 10
1.300000
 20
-0.225750
 30
-0.078250
 70
 32
 40
0.000000
  0
VERTEX
  8
0
 10
1.300000
 20
-0.192640
 30
-0.122800
 70
 32
 40
0.000000
  0
VERTEX
  8
0
 10
1.300000
 20
-0.153510
 30
-0.157450
 70
 32
 40
0.000000
  0
VERTEX
  8
0
 10
1.300000
 20
-0.108360
 30
-0.182200
 70
 32
 40
0.000000
  0
VERTEX
  8
0
 10
1.300000
 20
-0.057190
 30
-0.197050
 70
 32
 40
0.000000
  0
VERTEX
  8
0
 10
1.300000
 20
0.000000
 30
-0.202000
 70
 32
 40
0.000000
  0
SEQEND
  8
0
  0
POLYLINE
  8
0
 62
11
  6
CONTINUOUS
 66
  1
 70
  8
  0
VERTEX
  8
0
 10
1.950000
 20
0.401150
 30
0.280500
 70
 32
 40
0.000000
  0
VERTEX
  8
0
 10
1.950000
 20
0.403930
 30
0.188520
 70
 32
 40
0.000000
  0
VERTEX
  8
0
 10
1.950000
 20
0.396400
 30
0.103030
 70
 32
 40
0.000000
  0
VERTEX
  8
0
 10
1.950000
 20
0.378560
 30
0.024010
 70
 32
 40
0.000000
  0
VERTEX
  8
0
 10
1.950000
 20
0.350410
 30
-0.048540
 70
 32
 40
0.000000
  0
VERTEX
  8
0
 10
1.950000
 20
0.311960
 30
-0.114610
 70
 32
 40
0.000000
  0
VERTEX
  8
0
 10
1.950000
 20
0.263890
 30
-0.172610
 70
 32
 40
0.000000
  0
VERTEX
  8
0
 10
1.950000
 20
0.208600
 30
-0.217920
 70
 32
 40
0.000000
  0
VERTEX
  8
0
 10
1.950000
 20
0.146200
 30
-0.250340
 70
 32
 40
0.000000
  0
VERTEX
  8
0
 10
1.950000
 20
0.076660
 30
-0.269870
 70
 32
 40
0.000000
  0
VERTEX
  8
0
 10
1.950000
 20
0.000000
 30
-0.276530
 70
 32
 40
0.000000
  0
SEQEND
  8
0
  0
POLYLINE
  8
0
 62
11
  6
CONTINUOUS
 66
  1
 70
  8
  0
VERTEX
  8
0
 10
1.950000
 20
-0.401150
 30
0.280500
 70
 32
 40
0.000000
  0
VERTEX
  8
0
 10
1.950000
 20
-0.403930
 30
0.188520
 70
 32
 40
0.000000
  0
VERTEX
  8
0
 10
1.950000
 20
-0.396400
 30
0.103030
 70
 32
 40
0.000000
  0
VERTEX
  8
0
 10
1.950000
 20
-0.378560
 30
0.024010
 70
 32
 40
0.000000
  0
VERTEX
  8
0
 10
1.950000
 20
-0.350410
 30
-0.048540
 70
 32
 40
0.000000
  0
VERTEX
  8
0
 10
1.950000
 20
-0.311960
 30
-0.114610
 70
 32
 40
0.000000
  0
VERTEX
  8
0
 10
1.950000
 20
-0.263890
 30
-0.172610
 70
 32
 40
0.000000
  0
VERTEX
  8
0
 10
1.950000
 20
-0.208600
 30
-0.217920
 70
 32
 40
0.000000
  0
VERTEX
  8
0
 10
1.950000
 20
-0.146200
 30
-0.250340
 70
 32
 40
0.000000
  0
VERTEX
  8
0
 10
1.950000
 20
-0.076660
 30
-0.269870
 70
 32
 40
0.000000
  0
VERTEX
  8
0
 10
1.950000
 20
0.000000
 30
-0.276530
 70
 32
 40
0.000000
  0
SEQEND
  8
0
  0
POLYLINE
  8
0
 62
11
  6
CONTINUOUS
 66
  1
 70
  8
  0
VERTEX
  8
0
 10
2.600000
 20
0.475000
 30
0.268000
 70
 32
 40
0.000000
  0
VERTEX
  8
0
 10
2.600000
 20
0.481010
 30
0.179320
 70
 32
 40
0.000000
  0
VERTEX
  8
0
 10
2.600000
 20
0.473580
 30
0.094340
 70
 32
 40
0.000000
  0
VERTEX
  8
0
 10
2.600000
 20
0.452720
 30
0.013040
 70
 32
 40
0.000000
  0
VERTEX
  8
0
 10
2.600000
 20
0.418430
 30
-0.064550
 70
 32
 40
0.000000
  0
VERTEX
  8
0
 10
2.600000
 20
0.370700
 30
-0.138460
 70
 32
 40
0.000000
  0
VERTEX
  8
0
 10
2.600000
 20
0.311370
 30
-0.205340
 70
 32
 40
0.000000
  0
VERTEX
  8
0
 10
2.600000
 20
0.244540
 30
-0.257700
 70
 32
 40
0.000000
  0
VERTEX
  8
0
 10
2.600000
 20
0.170360
 30
-0.295270
 70
 32
 40
0.000000
  0
VERTEX
  8
0
 10
2.600000
 20
0.088850
 30
-0.318030
 70
 32
 40
0.000000
  0
VERTEX
  8
0
 10
2.600000
 20
0.000000
 30
-0.326000
 70
 32
 40
0.000000
  0
SEQEND
  8
0
  0
POLYLINE
  8
0
 62
11
  6
CONTINUOUS
 66
  1
 70
  8
  0
VERTEX
  8
0
 10
2.600000
 20
-0.475000
 30
0.268000
 70
 32
 40
0.000000
  0
VERTEX
  8
0
 10
2.600000
 20
-0.481010
 30
0.179320
 70
 32
 40
0.000000
  0
VERTEX
  8
0
 10
2.600000
 20
-0.473580
 30
0.094340
 70
 32
 40
0.000000
  0
VERTEX
  8
0
 10
2.600000
 20
-0.452720
 30
0.013040
 70
 32
 40
0.000000
  0
VERTEX
  8
0
 10
2.600000
 20
-0.418430
 30
-0.064550
 70
 32
 40
0.000000
  0
VERTEX
  8
0
 10
2.600000
 20
-0.370700
 30
-0.138460
 70
 32
 40
0.000000
  0
VERTEX
  8
0
 10
2.600000
 20
-0.311370
 30
-0.205340
 70
 32
 40
0.000000
  0
VERTEX
  8
0
 10
2.600000
 20
-0.244540
 30
-0.257700
 70
 32
 40
0.000000
  0
VERTEX
  8
0
 10
2.600000
 20
-0.170360
 30
-0.295270
 70
 32
 40
0.000000
  0
VERTEX
  8
0
 10
2.600000
 20
-0.088850
 30
-0.318030
 70
 32
 40
0.000000
  0
VERTEX
  8
0
 10
2.600000
 20
0.000000
 30
-0.326000
 70
 32
 40
0.000000
  0
SEQEND
  8
0
  0
POLYLINE
  8
0
 62
11
  6
CONTINUOUS
 66
  1
 70
  8
  0
VERTEX
  8
0
 10
3.250000
 20
0.521280
 30
0.255500
 70
 32
 40
0.000000
  0
VERTEX
  8
0
 10
3.250000
 20
0.524870
 30
0.165700
 70
 32
 40
0.000000
  0
VERTEX
  8
0
 10
3.250000
 20
0.514070
 30
0.079520
 70
 32
 40
0.000000
  0
VERTEX
  8
0
 10
3.250000
 20
0.488860
 30
-0.003050
 70
 32
 40
0.000000
  0
VERTEX
  8
0
 10
3.250000
 20
0.449260
 30
-0.082000
 70
 32
 40
0.000000
  0
VERTEX
  8
0
 10
3.250000
 20
0.395270
 30
-0.157330
 70
 32
 40
0.000000
  0
VERTEX
  8
0
 10
3.250000
 20
0.330180
 30
-0.224460
 70
 32
 40
0.000000
  0
VERTEX
  8
0
 10
3.250000
 20
0.258050
 30
-0.277020
 70
 32
 40
0.000000
  0
VERTEX
  8
0
 10
3.250000
 20
0.178960
 30
-0.314860
 70
 32
 40
0.000000
  0
VERTEX
  8
0
 10
3.250000
 20
0.092940
 30
-0.337970
 70
 32
 40
0.000000
  0
VERTEX
  8
0
 10
3.250000
 20
0.000000
 30
-0.346340
 70
 32
 40
0.000000
  0
SEQEND
  8
0
  0
POLYLINE
  8
0
 62
11
  6
CONTINUOUS
 66
  1
 70
  8
  0
VERTEX
  8
0
 10
3.250000
 20
-0.521280
 30
0.255500
 70
 32
 40
0.000000
  0
VERTEX
  8
0
 10
3.250000
 20
-0.524870
 30
0.165700
 70
 32
 40
0.000000
  0
VERTEX
  8
0
 10
3.250000
 20
-0.514070
 30
0.079520
 70
 32
 40
0.000000
  0
VERTEX
  8
0
 10
3.250000
 20
-0.488860
 30
-0.003050
 70
 32
 40
0.000000
  0
VERTEX
  8
0
 10
3.250000
 20
-0.449260
 30
-0.082000
 70
 32
 40
0.000000
  0
VERTEX
  8
0
 10
3.250000
 20
-0.395270
 30
-0.157330
 70
 32
 40
0.000000
  0
VERTEX
  8
0
 10
3.250000
 20
-0.330180
 30
-0.224460
 70
 32
 40
0.000000
  0
VERTEX
  8
0
 10
3.250000
 20
-0.258050
 30
-0.277020
 70
 32
 40
0.000000
  0
VERTEX
  8
0
 10
3.250000
 20
-0.178960
 30
-0.314860
 70
 32
 40
0.000000
  0
VERTEX
  8
0
 10
3.250000
 20
-0.092940
 30
-0.337970
 70
 32
 40
0.000000
  0
VERTEX
  8
0
 10
3.250000
 20
0.000000
 30
-0.346340
 70
 32
 40
0.000000
  0
SEQEND
  8
0
  0
POLYLINE
  8
0
 62
11
  6
CONTINUOUS
 66
  1
 70
  8
  0
VERTEX
  8
0
 10
3.900000
 20
0.541000
 30
0.243000
 70
 32
 40
0.000000
  0
VERTEX
  8
0
 10
3.900000
 20
0.539200
 30
0.152070
 70
 32
 40
0.000000
  0
VERTEX
  8
0
 10
3.900000
 20
0.523610
 30
0.065940
 70
 32
 40
0.000000
  0
VERTEX
  8
0
 10
3.900000
 20
0.494220
 30
-0.015400
 70
 32
 40
0.000000
  0
VERTEX
  8
0
 10
3.900000
 20
0.451040
 30
-0.091950
 70
 32
 40
0.000000
  0
VERTEX
  8
0
 10
3.900000
 20
0.394070
 30
-0.163690
 70
 32
 40
0.000000
  0
VERTEX
  8
0
 10
3.900000
 20
0.327590
 30
-0.225750
 70
 32
 40
0.000000
  0
VERTEX
  8
0
 10
3.900000
 20
0.278890
 30
-0.260220
 70
 32
 40
0.000000
  0
VERTEX
  8
0
 10
3.900000
 20
0.254950
 30
-0.274300
 70
 32
 40
0.000000
  0
VERTEX
  8
0
 10
3.900000
 20
0.176140
 30
-0.309360
 70
 32
 40
0.000000
  0
VERTEX
  8
0
 10
3.900000
 20
0.091150
 30
-0.330930
 70
 32
 40
0.000000
  0
VERTEX
  8
0
 10
3.900000
 20
0.000000
 30
-0.339000
 70
 32
 40
0.000000
  0
SEQEND
  8
0
  0
POLYLINE
  8
0
 62
11
  6
CONTINUOUS
 66
  1
 70
  8
  0
VERTEX
  8
0
 10
3.900000
 20
-0.541000
 30
0.243000
 70
 32
 40
0.000000
  0
VERTEX
  8
0
 10
3.900000
 20
-0.539200
 30
0.152070
 70
 32
 40
0.000000
  0
VERTEX
  8
0
 10
3.900000
 20
-0.523610
 30
0.065940
 70
 32
 40
0.000000
  0
VERTEX
  8
0
 10
3.900000
 20
-0.494220
 30
-0.015400
 70
 32
 40
0.000000
  0
VERTEX
  8
0
 10
3.900000
 20
-0.451040
 30
-0.091950
 70
 32
 40
0.000000
  0
VERTEX
  8
0
 10
3.900000
 20
-0.394070
 30
-0.163690
 70
 32
 40
0.000000
  0
VERTEX
  8
0
 10
3.900000
 20
-0.327590
 30
-0.225750
 70
 32
 40
0.000000
  0
VERTEX
  8
0
 10
3.900000
 20
-0.278890
 30
-0.260220
 70
 32
 40
0.000000
  0
VERTEX
  8
0
 10
3.900000
 20
-0.254950
 30
-0.274300
 70
 32
 40
0.000000
  0
VERTEX
  8
0
 10
3.900000
 20
-0.176140
 30
-0.309360
 70
 32
 40
0.000000
  0
VERTEX
  8
0
 10
3.900000
 20
-0.091150
 30
-0.330930
 70
 32
 40
0.000000
  0
VERTEX
  8
0
 10
3.900000
 20
0.000000
 30
-0.339000
 70
 32
 40
0.000000
  0
SEQEND
  8
0
  0
POLYLINE
  8
0
 62
11
  6
CONTINUOUS
 66
  1
 70
  8
  0
VERTEX
  8
0
 10
4.550000
 20
0.534670
 30
0.230500
 70
 32
 40
0.000000
  0
VERTEX
  8
0
 10
4.550000
 20
0.527770
 30
0.143980
 70
 32
 40
0.000000
  0
VERTEX
  8
0
 10
4.550000
 20
0.508470
 30
0.062840
 70
 32
 40
0.000000
  0
VERTEX
  8
0
 10
4.550000
 20
0.476800
 30
-0.012930
 70
 32
 40
0.000000
  0
VERTEX
  8
0
 10
4.550000
 20
0.436720
 30
-0.077880
 70
 32
 40
0.000000
  0
VERTEX
  8
0
 10
4.550000
 20
0.432740
 30
-0.083320
 70
 32
 40
0.000000
  0
VERTEX
  8
0
 10
4.550000
 20
0.376300
 30
-0.148330
 70
 32
 40
0.000000
  0
VERTEX
  8
0
 10
4.550000
 20
0.311450
 30
-0.204020
 70
 32
 40
0.000000
  0
VERTEX
  8
0
 10
4.550000
 20
0.241430
 30
-0.247570
 70
 32
 40
0.000000
  0
VERTEX
  8
0
 10
4.550000
 20
0.166220
 30
-0.279040
 70
 32
 40
0.000000
  0
VERTEX
  8
0
 10
4.550000
 20
0.085750
 30
-0.298440
 70
 32
 40
0.000000
  0
VERTEX
  8
0
 10
4.550000
 20
0.000000
 30
-0.305790
 70
 32
 40
0.000000
  0
SEQEND
  8
0
  0
POLYLINE
  8
0
 62
11
  6
CONTINUOUS
 66
  1
 70
  8
  0
VERTEX
  8
0
 10
4.550000
 20
-0.534670
 30
0.230500
 70
 32
 40
0.000000
  0
VERTEX
  8
0
 10
4.550000
 20
-0.527770
 30
0.143980
 70
 32
 40
0.000000
  0
VERTEX
  8
0
 10
4.550000
 20
-0.508470
 30
0.062840
 70
 32
 40
0.000000
  0
VERTEX
  8
0
 10
4.550000
 20
-0.476800
 30
-0.012930
 70
 32
 40
0.000000
  0
VERTEX
  8
0
 10
4.550000
 20
-0.436720
 30
-0.077880
 70
 32
 40
0.000000
  0
VERTEX
  8
0
 10
4.550000
 20
-0.432740
 30
-0.083320
 70
 32
 40
0.000000
  0
VERTEX
  8
0
 10
4.550000
 20
-0.376300
 30
-0.148330
 70
 32
 40
0.000000
  0
VERTEX
  8
0
 10
4.550000
 20
-0.311450
 30
-0.204020
 70
 32
 40
0.000000
  0
VERTEX
  8
0
 10
4.550000
 20
-0.241430
 30
-0.247570
 70
 32
 40
0.000000
  0
VERTEX
  8
0
 10
4.550000
 20
-0.166220
 30
-0.279040
 70
 32
 40
0.000000
  0
VERTEX
  8
0
 10
4.550000
 20
-0.085750
 30
-0.298440
 70
 32
 40
0.000000
  0
VERTEX
  8
0
 10
4.550000
 20
0.000000
 30
-0.305790
 70
 32
 40
0.000000
  0
SEQEND
  8
0
  0
POLYLINE
  8
0
 62
11
  6
CONTINUOUS
 66
  1
 70
  8
  0
VERTEX
  8
0
 10
5.200000
 20
0.499000
 30
0.218000
 70
 32
 40
0.000000
  0
VERTEX
  8
0
 10
5.200000
 20
0.487560
 30
0.141840
 70
 32
 40
0.000000
  0
VERTEX
  8
0
 10
5.200000
 20
0.465930
 30
0.070930
 70
 32
 40
0.000000
  0
VERTEX
  8
0
 10
5.200000
 20
0.434120
 30
0.005260
 70
 32
 40
0.000000
  0
VERTEX
  8
0
 10
5.200000
 20
0.392130
 30
-0.055170
 70
 32
 40
0.000000
  0
VERTEX
  8
0
 10
5.200000
 20
0.339960
 30
-0.110350
 70
 32
 40
0.000000
  0
VERTEX
  8
0
 10
5.200000
 20
0.280300
 30
-0.158000
 70
 32
 40
0.000000
  0
VERTEX
  8
0
 10
5.200000
 20
0.216470
 30
-0.195290
 70
 32
 40
0.000000
  0
VERTEX
  8
0
 10
5.200000
 20
0.148480
 30
-0.222220
 70
 32
 40
0.000000
  0
VERTEX
  8
0
 10
5.200000
 20
0.076320
 30
-0.238790
 70
 32
 40
0.000000
  0
VERTEX
  8
0
 10
5.200000
 20
0.000000
 30
-0.245000
 70
 32
 40
0.000000
  0
SEQEND
  8
0
  0
POLYLINE
  8
0
 62
11
  6
CONTINUOUS
 66
  1
 70
  8
  0
VERTEX
  8
0
 10
5.200000
 20
-0.499000
 30
0.218000
 70
 32
 40
0.000000
  0
VERTEX
  8
0
 10
5.200000
 20
-0.487560
 30
0.141840
 70
 32
 40
0.000000
  0
VERTEX
  8
0
 10
5.200000
 20
-0.465930
 30
0.070930
 70
 32
 40
0.000000
  0
VERTEX
  8
0
 10
5.200000
 20
-0.434120
 30
0.005260
 70
 32
 40
0.000000
  0
VERTEX
  8
0
 10
5.200000
 20
-0.392130
 30
-0.055170
 70
 32
 40
0.000000
  0
VERTEX
  8
0
 10
5.200000
 20
-0.339960
 30
-0.110350
 70
 32
 40
0.000000
  0
VERTEX
  8
0
 10
5.200000
 20
-0.280300
 30
-0.158000
 70
 32
 40
0.000000
  0
VERTEX
  8
0
 10
5.200000
 20
-0.216470
 30
-0.195290
 70
 32
 40
0.000000
  0
VERTEX
  8
0
 10
5.200000
 20
-0.148480
 30
-0.222220
 70
 32
 40
0.000000
  0
VERTEX
  8
0
 10
5.200000
 20
-0.076320
 30
-0.238790
 70
 32
 40
0.000000
  0
VERTEX
  8
0
 10
5.200000
 20
0.000000
 30
-0.245000
 70
 32
 40
0.000000
  0
SEQEND
  8
0
  0
POLYLINE
  8
0
 62
11
  6
CONTINUOUS
 66
  1
 70
  8
  0
VERTEX
  8
0
 10
5.850000
 20
0.429440
 30
0.205500
 70
 32
 40
0.000000
  0
VERTEX
  8
0
 10
5.850000
 20
0.413600
 30
0.144810
 70
 32
 40
0.000000
  0
VERTEX
  8
0
 10
5.850000
 20
0.390730
 30
0.088830
 70
 32
 40
0.000000
  0
VERTEX
  8
0
 10
5.850000
 20
0.360840
 30
0.037580
 70
 32
 40
0.000000
  0
VERTEX
  8
0
 10
5.850000
 20
0.323940
 30
-0.008970
 70
 32
 40
0.000000
  0
VERTEX
  8
0
 10
5.850000
 20
0.280000
 30
-0.050800
 70
 32
 40
0.000000
  0
VERTEX
  8
0
 10
5.850000
 20
0.230200
 30
-0.087210
 70
 32
 40
0.000000
  0
VERTEX
  8
0
 10
5.850000
 20
0.177090
 30
-0.115820
 70
 32
 40
0.000000
  0
VERTEX
  8
0
 10
5.850000
 20
0.120790
 30
-0.136540
 70
 32
 40
0.000000
  0
VERTEX
  8
0
 10
5.850000
 20
0.061750
 30
-0.149200
 70
 32
 40
0.000000
  0
VERTEX
  8
0
 10
5.850000
 20
0.000000
 30
-0.153800
 70
 32
 40
0.000000
  0
SEQEND
  8
0
  0
POLYLINE
  8
0
 62
11
  6
CONTINUOUS
 66
  1
 70
  8
  0
VERTEX
  8
0
 10
5.850000
 20
-0.429440
 30
0.205500
 70
 32
 40
0.000000
  0
VERTEX
  8
0
 10
5.850000
 20
-0.413600
 30
0.144810
 70
 32
 40
0.000000
  0
VERTEX
  8
0
 10
5.850000
 20
-0.390730
 30
0.088830
 70
 32
 40
0.000000
  0
VERTEX
  8
0
 10
5.850000
 20
-0.360840
 30
0.037580
 70
 32
 40
0.000000
  0
VERTEX
  8
0
 10
5.850000
 20
-0.323940
 30
-0.008970
 70
 32
 40
0.000000
  0
VERTEX
  8
0
 10
5.850000
 20
-0.280000
 30
-0.050800
 70
 32
 40
0.000000
  0
VERTEX
  8
0
 10
5.850000
 20
-0.230200
 30
-0.087210
 70
 32
 40
0.000000
  0
VERTEX
  8
0
 10
5.850000
 20
-0.177090
 30
-0.115820
 70
 32
 40
0.000000
  0
VERTEX
  8
0
 10
5.850000
 20
-0.120790
 30
-0.136540
 70
 32
 40
0.000000
  0
VERTEX
  8
0
 10
5.850000
 20
-0.061750
 30
-0.149200
 70
 32
 40
0.000000
  0
VERTEX
  8
0
 10
5.850000
 20
0.000000
 30
-0.153800
 70
 32
 40
0.000000
  0
SEQEND
  8
0
  0
POLYLINE
  8
0
 62
11
  6
CONTINUOUS
 66
  1
 70
  8
  0
VERTEX
  8
0
 10
0.000000
 20
0.000000
 30
0.700000
 70
 32
 40
0.000000
  0
VERTEX
  8
0
 10
0.000000
 20
0.005510
 30
0.696180
 70
 32
 40
0.000000
  0
VERTEX
  8
0
 10
0.000000
 20
0.010440
 30
0.684720
 70
 32
 40
0.000000
  0
VERTEX
  8
0
 10
0.000000
 20
0.014790
 30
0.665620
 70
 32
 40
0.000000
  0
VERTEX
  8
0
 10
0.000000
 20
0.018560
 30
0.638880
 70
 32
 40
0.000000
  0
VERTEX
  8
0
 10
0.000000
 20
0.021750
 30
0.604500
 70
 32
 40
0.000000
  0
VERTEX
  8
0
 10
0.000000
 20
0.024360
 30
0.562480
 70
 32
 40
0.000000
  0
VERTEX
  8
0
 10
0.000000
 20
0.026390
 30
0.512820
 70
 32
 40
0.000000
  0
VERTEX
  8
0
 10
0.000000
 20
0.027840
 30
0.455520
 70
 32
 40
0.000000
  0
VERTEX
  8
0
 10
0.000000
 20
0.028710
 30
0.390580
 70
 32
 40
0.000000
  0
VERTEX
  8
0
 10
0.000000
 20
0.029000
 30
0.318000
 70
 32
 40
0.000000
  0
SEQEND
  8
0
  0
POLYLINE
  8
0
 62
11
  6
CONTINUOUS
 66
  1
 70
  8
  0
VERTEX
  8
0
 10
0.000000
 20
0.000000
 30
0.700000
 70
 32
 40
0.000000
  0
VERTEX
  8
0
 10
0.000000
 20
-0.005510
 30
0.696180
 70
 32
 40
0.000000
  0
VERTEX
  8
0
 10
0.000000
 20
-0.010440
 30
0.684720
 70
 32
 40
0.000000
  0
VERTEX
  8
0
 10
0.000000
 20
-0.014790
 30
0.665620
 70
 32
 40
0.000000
  0
VERTEX
  8
0
 10
0.000000
 20
-0.018560
 30
0.638880
 70
 32
 40
0.000000
  0
VERTEX
  8
0
 10
0.000000
 20
-0.021750
 30
0.604500
 70
 32
 40
0.000000
  0
VERTEX
  8
0
 10
0.000000
 20
-0.024360
 30
0.562480
 70
 32
 40
0.000000
  0
VERTEX
  8
0
 10
0.000000
 20
-0.026390
 30
0.512820
 70
 32
 40
0.000000
  0
VERTEX
  8
0
 10
0.000000
 20
-0.027840
 30
0.455520
 70
 32
 40
0.000000
  0
VERTEX
  8
0
 10
0.000000
 20
-0.028710
 30
0.390580
 70
 32
 40
0.000000
  0
VERTEX
  8
0
 10
0.000000
 20
-0.029000
 30
0.318000
 70
 32
 40
0.000000
  0
SEQEND
  8
0
  0
POLYLINE
  8
0
 62
11
  6
CONTINUOUS
 66
  1
 70
  8
  0
VERTEX
  8
0
 10
0.650000
 20
0.024780
 30
0.637500
 70
 32
 40
0.000000
  0
VERTEX
  8
0
 10
0.650000
 20
0.053450
 30
0.634200
 70
 32
 40
0.000000
  0
VERTEX
  8
0
 10
0.650000
 20
0.075070
 30
0.626370
 70
 32
 40
0.000000
  0
VERTEX
  8
0
 10
0.650000
 20
0.079130
 30
0.624250
 70
 32
 40
0.000000
  0
VERTEX
  8
0
 10
0.650000
 20
0.101830
 30
0.607670
 70
 32
 40
0.000000
  0
VERTEX
  8
0
 10
0.650000
 20
0.121530
 30
0.584440
 70
 32
 40
0.000000
  0
VERTEX
  8
0
 10
0.650000
 20
0.138240
 30
0.554560
 70
 32
 40
0.000000
  0
VERTEX
  8
0
 10
0.650000
 20
0.151940
 30
0.518040
 70
 32
 40
0.000000
  0
VERTEX
  8
0
 10
0.650000
 20
0.162610
 30
0.474870
 70
 32
 40
0.000000
  0
VERTEX
  8
0
 10
0.650000
 20
0.170240
 30
0.425060
 70
 32
 40
0.000000
  0
VERTEX
  8
0
 10
0.650000
 20
0.174830
 30
0.368600
 70
 32
 40
0.000000
  0
VERTEX
  8
0
 10
0.650000
 20
0.176360
 30
0.305500
 70
 32
 40
0.000000
  0
SEQEND
  8
0
  0
POLYLINE
  8
0
 62
11
  6
CONTINUOUS
 66
  1
 70
  8
  0
VERTEX
  8
0
 10
0.650000
 20
-0.024780
 30
0.637500
 70
 32
 40
0.000000
  0
VERTEX
  8
0
 10
0.650000
 20
-0.053450
 30
0.634200
 70
 32
 40
0.000000
  0
VERTEX
  8
0
 10
0.650000
 20
-0.075070
 30
0.626370
 70
 32
 40
0.000000
  0
VERTEX
  8
0
 10
0.650000
 20
-0.079130
 30
0.624250
 70
 32
 40
0.000000
  0
VERTEX
  8
0
 10
0.650000
 20
-0.101830
 30
0.607670
 70
 32
 40
0.000000
  0
VERTEX
  8
0
 10
0.650000
 20
-0.121530
 30
0.584440
 70
 32
 40
0.000000
  0
VERTEX
  8
0
 10
0.650000
 20
-0.138240
 30
0.554560
 70
 32
 40
0.000000
  0
VERTEX
  8
0
 10
0.650000
 20
-0.151940
 30
0.518040
 70
 32
 40
0.000000
  0
VERTEX
  8
0
 10
0.650000
 20
-0.162610
 30
0.474870
 70
 32
 40
0.000000
  0
VERTEX
  8
0
 10
0.650000
 20
-0.170240
 30
0.425060
 70
 32
 40
0.000000
  0
VERTEX
  8
0
 10
0.650000
 20
-0.174830
 30
0.368600
 70
 32
 40
0.000000
  0
VERTEX
  8
0
 10
0.650000
 20
-0.176360
 30
0.305500
 70
 32
 40
0.000000
  0
SEQEND
  8
0
  0
POLYLINE
  8
0
 62
11
  6
CONTINUOUS
 66
  1
 70
  8
  0
VERTEX
  8
0
 10
1.300000
 20
0.100000
 30
0.569000
 70
 32
 40
0.000000
  0
VERTEX
  8
0
 10
1.300000
 20
0.112070
 30
0.568740
 70
 32
 40
0.000000
  0
VERTEX
  8
0
 10
1.300000
 20
0.138190
 30
0.566240
 70
 32
 40
0.000000
  0
VERTEX
  8
0
 10
1.300000
 20
0.172360
 30
0.557960
 70
 32
 40
0.000000
  0
VERTEX
  8
0
 10
1.300000
 20
0.202510
 30
0.544160
 70
 32
 40
0.000000
  0
VERTEX
  8
0
 10
1.300000
 20
0.228640
 30
0.524840
 70
 32
 40
0.000000
  0
VERTEX
  8
0
 10
1.300000
 20
0.250750
 30
0.500000
 70
 32
 40
0.000000
  0
VERTEX
  8
0
 10
1.300000
 20
0.268840
 30
0.469640
 70
 32
 40
0.000000
  0
VERTEX
  8
0
 10
1.300000
 20
0.282910
 30
0.433760
 70
 32
 40
0.000000
  0
VERTEX
  8
0
 10
1.300000
 20
0.292960
 30
0.392360
 70
 32
 40
0.000000
  0
VERTEX
  8
0
 10
1.300000
 20
0.298990
 30
0.345440
 70
 32
 40
0.000000
  0
VERTEX
  8
0
 10
1.300000
 20
0.301000
 30
0.293000
 70
 32
 40
0.000000
  0
SEQEND
  8
0
  0
POLYLINE
  8
0
 62
11
  6
CONTINUOUS
 66
  1
 70
  8
  0
VERTEX
  8
0
 10
1.300000
 20
-0.100000
 30
0.569000
 70
 32
 40
0.000000
  0
VERTEX
  8
0
 10
1.300000
 20
-0.112070
 30
0.568740
 70
 32
 40
0.000000
  0
VERTEX
  8
0
 10
1.300000
 20
-0.138190
 30
0.566240
 70
 32
 40
0.000000
  0
VERTEX
  8
0
 10
1.300000
 20
-0.172360
 30
0.557960
 70
 32
 40
0.000000
  0
VERTEX
  8
0
 10
1.300000
 20
-0.202510
 30
0.544160
 70
 32
 40
0.000000
  0
VERTEX
  8
0
 10
1.300000
 20
-0.228640
 30
0.524840
 70
 32
 40
0.000000
  0
VERTEX
  8
0
 10
1.300000
 20
-0.250750
 30
0.500000
 70
 32
 40
0.000000
  0
VERTEX
  8
0
 10
1.300000
 20
-0.268840
 30
0.469640
 70
 32
 40
0.000000
  0
VERTEX
  8
0
 10
1.300000
 20
-0.282910
 30
0.433760
 70
 32
 40
0.000000
  0
VERTEX
  8
0
 10
1.300000
 20
-0.292960
 30
0.392360
 70
 32
 40
0.000000
  0
VERTEX
  8
0
 10
1.300000
 20
-0.298990
 30
0.345440
 70
 32
 40
0.000000
  0
VERTEX
  8
0
 10
1.300000
 20
-0.301000
 30
0.293000
 70
 32
 40
0.000000
  0
SEQEND
  8
0
  0
POLYLINE
  8
0
 62
11
  6
CONTINUOUS
 66
  1
 70
  8
  0
VERTEX
  8
0
 10
1.950000
 20
0.201790
 30
0.500460
 70
 32
 40
0.000000
  0
VERTEX
  8
0
 10
1.950000
 20
0.239730
 30
0.498260
 70
 32
 40
0.000000
  0
VERTEX
  8
0
 10
1.950000
 20
0.273650
 30
0.491650
 70
 32
 40
0.000000
  0
VERTEX
  8
0
 10
1.950000
 20
0.303570
 30
0.480650
 70
 32
 40
0.000000
  0
VERTEX
  8
0
 10
1.950000
 20
0.329480
 30
0.465250
 70
 32
 40
0.000000
  0
VERTEX
  8
0
 10
1.950000
 20
0.351400
 30
0.445450
 70
 32
 40
0.000000
  0
VERTEX
  8
0
 10
1.950000
 20
0.369320
 30
0.421260
 70
 32
 40
0.000000
  0
VERTEX
  8
0
 10
1.950000
 20
0.383250
 30
0.392670
 70
 32
 40
0.000000
  0
VERTEX
  8
0
 10
1.950000
 20
0.393200
 30
0.359680
 70
 32
 40
0.000000
  0
VERTEX
  8
0
 10
1.950000
 20
0.399160
 30
0.322290
 70
 32
 40
0.000000
  0
VERTEX
  8
0
 10
1.950000
 20
0.401150
 30
0.280500
 70
 32
 40
0.000000
  0
SEQEND
  8
0
  0
POLYLINE
  8
0
 62
11
  6
CONTINUOUS
 66
  1
 70
  8
  0
VERTEX
  8
0
 10
1.950000
 20
-0.201790
 30
0.500460
 70
 32
 40
0.000000
  0
VERTEX
  8
0
 10
1.950000
 20
-0.239730
 30
0.498260
 70
 32
 40
0.000000
  0
VERTEX
  8
0
 10
1.950000
 20
-0.273650
 30
0.491650
 70
 32
 40
0.000000
  0
VERTEX
  8
0
 10
1.950000
 20
-0.303570
 30
0.480650
 70
 32
 40
0.000000
  0
VERTEX
  8
0
 10
1.950000
 20
-0.329480
 30
0.465250
 70
 32
 40
0.000000
  0
VERTEX
  8
0
 10
1.950000
 20
-0.351400
 30
0.445450
 70
 32
 40
0.000000
  0
VERTEX
  8
0
 10
1.950000
 20
-0.369320
 30
0.421260
 70
 32
 40
0.000000
  0
VERTEX
  8
0
 10
1.950000
 20
-0.383250
 30
0.392670
 70
 32
 40
0.000000
  0
VERTEX
  8
0
 10
1.950000
 20
-0.393200
 30
0.359680
 70
 32
 40
0.000000
  0
VERTEX
  8
0
 10
1.950000
 20
-0.399160
 30
0.322290
 70
 32
 40
0.000000
  0
VERTEX
  8
0
 10
1.950000
 20
-0.401150
 30
0.280500
 70
 32
 40
0.000000
  0
SEQEND
  8
0
  0
POLYLINE
  8
0
 62
11
  6
CONTINUOUS
 66
  1
 70
  8
  0
VERTEX
  8
0
 10
2.600000
 20
0.305000
 30
0.438000
 70
 32
 40
0.000000
  0
VERTEX
  8
0
 10
2.600000
 20
0.337300
 30
0.436300
 70
 32
 40
0.000000
  0
VERTEX
  8
0
 10
2.600000
 20
0.366200
 30
0.431200
 70
 32
 40
0.000000
  0
VERTEX
  8
0
 10
2.600000
 20
0.391700
 30
0.422700
 70
 32
 40
0.000000
  0
VERTEX
  8
0
 10
2.600000
 20
0.413800
 30
0.410800
 70
 32
 40
0.000000
  0
VERTEX
  8
0
 10
2.600000
 20
0.432500
 30
0.395500
 70
 32
 40
0.000000
  0
VERTEX
  8
0
 10
2.600000
 20
0.447800
 30
0.376800
 70
 32
 40
0.000000
  0
VERTEX
  8
0
 10
2.600000
 20
0.459700
 30
0.354700
 70
 32
 40
0.000000
  0
VERTEX
  8
0
 10
2.600000
 20
0.468200
 30
0.329200
 70
 32
 40
0.000000
  0
VERTEX
  8
0
 10
2.600000
 20
0.473300
 30
0.300300
 70
 32
 40
0.000000
  0
VERTEX
  8
0
 10
2.600000
 20
0.475000
 30
0.268000
 70
 32
 40
0.000000
  0
SEQEND
  8
0
  0
POLYLINE
  8
0
 62
11
  6
CONTINUOUS
 66
  1
 70
  8
  0
VERTEX
  8
0
 10
2.600000
 20
-0.305000
 30
0.438000
 70
 32
 40
0.000000
  0
VERTEX
  8
0
 10
2.600000
 20
-0.337300
 30
0.436300
 70
 32
 40
0.000000
  0
VERTEX
  8
0
 10
2.600000
 20
-0.366200
 30
0.431200
 70
 32
 40
0.000000
  0
VERTEX
  8
0
 10
2.600000
 20
-0.391700
 30
0.422700
 70
 32
 40
0.000000
  0
VERTEX
  8
0
 10
2.600000
 20
-0.413800
 30
0.410800
 70
 32
 40
0.000000
  0
VERTEX
  8
0
 10
2.600000
 20
-0.432500
 30
0.395500
 70
 32
 40
0.000000
  0
VERTEX
  8
0
 10
2.600000
 20
-0.447800
 30
0.376800
 70
 32
 40
0.000000
  0
VERTEX
  8
0
 10
2.600000
 20
-0.459700
 30
0.354700
 70
 32
 40
0.000000
  0
VERTEX
  8
0
 10
2.600000
 20
-0.468200
 30
0.329200
 70
 32
 40
0.000000
  0
VERTEX
  8
0
 10
2.600000
 20
-0.473300
 30
0.300300
 70
 32
 40
0.000000
  0
VERTEX
  8
0
 10
2.600000
 20
-0.475000
 30
0.268000
 70
 32
 40
0.000000
  0
SEQEND
  8
0
  0
POLYLINE
  8
0
 62
11
  6
CONTINUOUS
 66
  1
 70
  8
  0
VERTEX
  8
0
 10
3.250000
 20
0.387320
 30
0.386450
 70
 32
 40
0.000000
  0
VERTEX
  8
0
 10
3.250000
 20
0.412750
 30
0.385140
 70
 32
 40
0.000000
  0
VERTEX
  8
0
 10
3.250000
 20
0.435510
 30
0.381220
 70
 32
 40
0.000000
  0
VERTEX
  8
0
 10
3.250000
 20
0.455600
 30
0.374670
 70
 32
 40
0.000000
  0
VERTEX
  8
0
 10
3.250000
 20
0.473010
 30
0.365500
 70
 32
 40
0.000000
  0
VERTEX
  8
0
 10
3.250000
 20
0.487760
 30
0.353720
 70
 32
 40
0.000000
  0
VERTEX
  8
0
 10
3.250000
 20
0.499820
 30
0.339310
 70
 32
 40
0.000000
  0
VERTEX
  8
0
 10
3.250000
 20
0.509210
 30
0.322290
 70
 32
 40
0.000000
  0
VERTEX
  8
0
 10
3.250000
 20
0.515910
 30
0.302640
 70
 32
 40
0.000000
  0
VERTEX
  8
0
 10
3.250000
 20
0.519940
 30
0.280380
 70
 32
 40
0.000000
  0
VERTEX
  8
0
 10
3.250000
 20
0.521280
 30
0.255500
 70
 32
 40
0.000000
  0
SEQEND
  8
0
  0
POLYLINE
  8
0
 62
11
  6
CONTINUOUS
 66
  1
 70
  8
  0
VERTEX
  8
0
 10
3.250000
 20
-0.387320
 30
0.386450
 70
 32
 40
0.000000
  0
VERTEX
  8
0
 10
3.250000
 20
-0.412750
 30
0.385140
 70
 32
 40
0.000000
  0
VERTEX
  8
0
 10
3.250000
 20
-0.435510
 30
0.381220
 70
 32
 40
0.000000
  0
VERTEX
  8
0
 10
3.250000
 20
-0.455600
 30
0.374670
 70
 32
 40
0.000000
  0
VERTEX
  8
0
 10
3.250000
 20
-0.473010
 30
0.365500
 70
 32
 40
0.000000
  0
VERTEX
  8
0
 10
3.250000
 20
-0.487760
 30
0.353720
 70
 32
 40
0.000000
  0
VERTEX
  8
0
 10
3.250000
 20
-0.499820
 30
0.339310
 70
 32
 40
0.000000
  0
VERTEX
  8
0
 10
3.250000
 20
-0.509210
 30
0.322290
 70
 32
 40
0.000000
  0
VERTEX
  8
0
 10
3.250000
 20
-0.515910
 30
0.302640
 70
 32
 40
0.000000
  0
VERTEX
  8
0
 10
3.250000
 20
-0.519940
 30
0.280380
 70
 32
 40
0.000000
  0
VERTEX
  8
0
 10
3.250000
 20
-0.521280
 30
0.255500
 70
 32
 40
0.000000
  0
SEQEND
  8
0
  0
POLYLINE
  8
0
 62
11
  6
CONTINUOUS
 66
  1
 70
  8
  0
VERTEX
  8
0
 10
3.900000
 20
0.438000
 30
0.346000
 70
 32
 40
0.000000
  0
VERTEX
  8
0
 10
3.900000
 20
0.457570
 30
0.344970
 70
 32
 40
0.000000
  0
VERTEX
  8
0
 10
3.900000
 20
0.475080
 30
0.341880
 70
 32
 40
0.000000
  0
VERTEX
  8
0
 10
3.900000
 20
0.490530
 30
0.336730
 70
 32
 40
0.000000
  0
VERTEX
  8
0
 10
3.900000
 20
0.503920
 30
0.329520
 70
 32
 40
0.000000
  0
VERTEX
  8
0
 10
3.900000
 20
0.515250
 30
0.320250
 70
 32
 40
0.000000
  0
VERTEX
  8
0
 10
3.900000
 20
0.524520
 30
0.308920
 70
 32
 40
0.000000
  0
VERTEX
  8
0
 10
3.900000
 20
0.531730
 30
0.295530
 70
 32
 40
0.000000
  0
VERTEX
  8
0
 10
3.900000
 20
0.536880
 30
0.280080
 70
 32
 40
0.000000
  0
VERTEX
  8
0
 10
3.900000
 20
0.539970
 30
0.262570
 70
 32
 40
0.000000
  0
VERTEX
  8
0
 10
3.900000
 20
0.541000
 30
0.243000
 70
 32
 40
0.000000
  0
SEQEND
  8
0
  0
POLYLINE
  8
0
 62
11
  6
CONTINUOUS
 66
  1
 70
  8
  0
VERTEX
  8
0
 10
3.900000
 20
-0.438000
 30
0.346000
 70
 32
 40
0.000000
  0
VERTEX
  8
0
 10
3.900000
 20
-0.457570
 30
0.344970
 70
 32
 40
0.000000
  0
VERTEX
  8
0
 10
3.900000
 20
-0.475080
 30
0.341880
 70
 32
 40
0.000000
  0
VERTEX
  8
0
 10
3.900000
 20
-0.490530
 30
0.336730
 70
 32
 40
0.000000
  0
VERTEX
  8
0
 10
3.900000
 20
-0.503920
 30
0.329520
 70
 32
 40
0.000000
  0
VERTEX
  8
0
 10
3.900000
 20
-0.515250
 30
0.320250
 70
 32
 40
0.000000
  0
VERTEX
  8
0
 10
3.900000
 20
-0.524520
 30
0.308920
 70
 32
 40
0.000000
  0
VERTEX
  8
0
 10
3.900000
 20
-0.531730
 30
0.295530
 70
 32
 40
0.000000
  0
VERTEX
  8
0
 10
3.900000
 20
-0.536880
 30
0.280080
 70
 32
 40
0.000000
  0
VERTEX
  8
0
 10
3.900000
 20
-0.539970
 30
0.262570
 70
 32
 40
0.000000
  0
VERTEX
  8
0
 10
3.900000
 20
-0.541000
 30
0.243000
 70
 32
 40
0.000000
  0
SEQEND
  8
0
  0
POLYLINE
  8
0
 62
11
  6
CONTINUOUS
 66
  1
 70
  8
  0
VERTEX
  8
0
 10
4.550000
 20
0.450610
 30
0.315540
 70
 32
 40
0.000000
  0
VERTEX
  8
0
 10
4.550000
 20
0.466590
 30
0.314680
 70
 32
 40
0.000000
  0
VERTEX
  8
0
 10
4.550000
 20
0.480890
 30
0.312130
 70
 32
 40
0.000000
  0
VERTEX
  8
0
 10
4.550000
 20
0.493500
 30
0.307870
 70
 32
 40
0.000000
  0
VERTEX
  8
0
 10
4.550000
 20
0.504430
 30
0.301920
 70
 32
 40
0.000000
  0
VERTEX
  8
0
 10
4.550000
 20
0.513670
 30
0.294270
 70
 32
 40
0.000000
  0
VERTEX
  8
0
 10
4.550000
 20
0.521240
 30
0.284910
 70
 32
 40
0.000000
  0
VERTEX
  8
0
 10
4.550000
 20
0.527120
 30
0.273860
 70
 32
 40
0.000000
  0
VERTEX
  8
0
 10
4.550000
 20
0.531310
 30
0.261110
 70
 32
 40
0.000000
  0
VERTEX
  8
0
 10
4.550000
 20
0.533830
 30
0.246650
 70
 32
 40
0.000000
  0
VERTEX
  8
0
 10
4.550000
 20
0.534670
 30
0.230500
 70
 32
 40
0.000000
  0
SEQEND
  8
0
  0
POLYLINE
  8
0
 62
11
  6
CONTINUOUS
 66
  1
 70
  8
  0
VERTEX
  8
0
 10
4.550000
 20
-0.450610
 30
0.315540
 70
 32
 40
0.000000
  0
VERTEX
  8
0
 10
4.550000
 20
-0.466590
 30
0.314680
 70
 32
 40
0.000000
  0
VERTEX
  8
0
 10
4.550000
 20
-0.480890
 30
0.312130
 70
 32
 40
0.000000
  0
VERTEX
  8
0
 10
4.550000
 20
-0.493500
 30
0.307870
 70
 32
 40
0.000000
  0
VERTEX
  8
0
 10
4.550000
 20
-0.504430
 30
0.301920
 70
 32
 40
0.000000
  0
VERTEX
  8
0
 10
4.550000
 20
-0.513670
 30
0.294270
 70
 32
 40
0.000000
  0
VERTEX
  8
0
 10
4.550000
 20
-0.521240
 30
0.284910
 70
 32
 40
0.000000
  0
VERTEX
  8
0
 10
4.550000
 20
-0.527120
 30
0.273860
 70
 32
 40
0.000000
  0
VERTEX
  8
0
 10
4.550000
 20
-0.531310
 30
0.261110
 70
 32
 40
0.000000
  0
VERTEX
  8
0
 10
4.550000
 20
-0.533830
 30
0.246650
 70
 32
 40
0.000000
  0
VERTEX
  8
0
 10
4.550000
 20
-0.534670
 30
0.230500
 70
 32
 40
0.000000
  0
SEQEND
  8
0
  0
POLYLINE
  8
0
 62
11
  6
CONTINUOUS
 66
  1
 70
  8
  0
VERTEX
  8
0
 10
5.200000
 20
0.424000
 30
0.293000
 70
 32
 40
0.000000
  0
VERTEX
  8
0
 10
5.200000
 20
0.438250
 30
0.292250
 70
 32
 40
0.000000
  0
VERTEX
  8
0
 10
5.200000
 20
0.451000
 30
0.290000
 70
 32
 40
0.000000
  0
VERTEX
  8
0
 10
5.200000
 20
0.462250
 30
0.286250
 70
 32
 40
0.000000
  0
VERTEX
  8
0
 10
5.200000
 20
0.472000
 30
0.281000
 70
 32
 40
0.000000
  0
VERTEX
  8
0
 10
5.200000
 20
0.480250
 30
0.274250
 70
 32
 40
0.000000
  0
VERTEX
  8
0
 10
5.200000
 20
0.487000
 30
0.266000
 70
 32
 40
0.000000
  0
VERTEX
  8
0
 10
5.200000
 20
0.492250
 30
0.256250
 70
 32
 40
0.000000
  0
VERTEX
  8
0
 10
5.200000
 20
0.496000
 30
0.245000
 70
 32
 40
0.000000
  0
VERTEX
  8
0
 10
5.200000
 20
0.498250
 30
0.232250
 70
 32
 40
0.000000
  0
VERTEX
  8
0
 10
5.200000
 20
0.499000
 30
0.218000
 70
 32
 40
0.000000
  0
SEQEND
  8
0
  0
POLYLINE
  8
0
 62
11
  6
CONTINUOUS
 66
  1
 70
  8
  0
VERTEX
  8
0
 10
5.200000
 20
-0.424000
 30
0.293000
 70
 32
 40
0.000000
  0
VERTEX
  8
0
 10
5.200000
 20
-0.438250
 30
0.292250
 70
 32
 40
0.000000
  0
VERTEX
  8
0
 10
5.200000
 20
-0.451000
 30
0.290000
 70
 32
 40
0.000000
  0
VERTEX
  8
0
 10
5.200000
 20
-0.462250
 30
0.286250
 70
 32
 40
0.000000
  0
VERTEX
  8
0
 10
5.200000
 20
-0.472000
 30
0.281000
 70
 32
 40
0.000000
  0
VERTEX
  8
0
 10
5.200000
 20
-0.480250
 30
0.274250
 70
 32
 40
0.000000
  0
VERTEX
  8
0
 10
5.200000
 20
-0.487000
 30
0.266000
 70
 32
 40
0.000000
  0
VERTEX
  8
0
 10
5.200000
 20
-0.492250
 30
0.256250
 70
 32
 40
0.000000
  0
VERTEX
  8
0
 10
5.200000
 20
-0.496000
 30
0.245000
 70
 32
 40
0.000000
  0
VERTEX
  8
0
 10
5.200000
 20
-0.498250
 30
0.232250
 70
 32
 40
0.000000
  0
VERTEX
  8
0
 10
5.200000
 20
-0.499000
 30
0.218000
 70
 32
 40
0.000000
  0
SEQEND
  8
0
  0
POLYLINE
  8
0
 62
11
  6
CONTINUOUS
 66
  1
 70
  8
  0
VERTEX
  8
0
 10
5.850000
 20
0.357810
 30
0.276200
 70
 32
 40
0.000000
  0
VERTEX
  8
0
 10
5.850000
 20
0.371410
 30
0.275500
 70
 32
 40
0.000000
  0
VERTEX
  8
0
 10
5.850000
 20
0.383570
 30
0.273390
 70
 32
 40
0.000000
  0
VERTEX
  8
0
 10
5.850000
 20
0.394320
 30
0.269850
 70
 32
 40
0.000000
  0
VERTEX
  8
0
 10
5.850000
 20
0.403630
 30
0.264910
 70
 32
 40
0.000000
  0
VERTEX
  8
0
 10
5.850000
 20
0.411520
 30
0.258540
 70
 32
 40
0.000000
  0
VERTEX
  8
0
 10
5.850000
 20
0.417970
 30
0.250760
 70
 32
 40
0.000000
  0
VERTEX
  8
0
 10
5.850000
 20
0.422990
 30
0.241570
 70
 32
 40
0.000000
  0
VERTEX
  8
0
 10
5.850000
 20
0.426570
 30
0.230960
 70
 32
 40
0.000000
  0
VERTEX
  8
0
 10
5.850000
 20
0.428730
 30
0.218940
 70
 32
 40
0.000000
  0
VERTEX
  8
0
 10
5.850000
 20
0.429440
 30
0.205500
 70
 32
 40
0.000000
  0
SEQEND
  8
0
  0
POLYLINE
  8
0
 62
11
  6
CONTINUOUS
 66
  1
 70
  8
  0
VERTEX
  8
0
 10
5.850000
 20
-0.357810
 30
0.276200
 70
 32
 40
0.000000
  0
VERTEX
  8
0
 10
5.850000
 20
-0.371410
 30
0.275500
 70
 32
 40
0.000000
  0
VERTEX
  8
0
 10
5.850000
 20
-0.383570
 30
0.273390
 70
 32
 40
0.000000
  0
VERTEX
  8
0
 10
5.850000
 20
-0.394320
 30
0.269850
 70
 32
 40
0.000000
  0
VERTEX
  8
0
 10
5.850000
 20
-0.403630
 30
0.264910
 70
 32
 40
0.000000
  0
VERTEX
  8
0
 10
5.850000
 20
-0.411520
 30
0.258540
 70
 32
 40
0.000000
  0
VERTEX
  8
0
 10
5.850000
 20
-0.417970
 30
0.250760
 70
 32
 40
0.000000
  0
VERTEX
  8
0
 10
5.850000
 20
-0.422990
 30
0.241570
 70
 32
 40
0.000000
  0
VERTEX
  8
0
 10
5.850000
 20
-0.426570
 30
0.230960
 70
 32
 40
0.000000
  0
VERTEX
  8
0
 10
5.850000
 20
-0.428730
 30
0.218940
 70
 32
 40
0.000000
  0
VERTEX
  8
0
 10
5.850000
 20
-0.429440
 30
0.205500
 70
 32
 40
0.000000
  0
SEQEND
  8
0
  0
POLYLINE
  8
0
 62
11
  6
CONTINUOUS
 66
  1
 70
  9
  0
VERTEX
  8
0
 10
0.000000
 20
0.000000
 30
0.700000
 70
 32
 40
0.000000
  0
VERTEX
  8
0
 10
0.000000
 20
0.000000
 30
0.700000
 70
 32
 40
0.000000
  0
VERTEX
  8
0
 10
0.000000
 20
0.000000
 30
0.700000
 70
 32
 40
0.000000
  0
VERTEX
  8
0
 10
0.000000
 20
0.000000
 30
0.700000
 70
 32
 40
0.000000
  0
VERTEX
  8
0
 10
0.000000
 20
0.000000
 30
0.700000
 70
 32
 40
0.000000
  0
VERTEX
  8
0
 10
0.000000
 20
0.000000
 30
0.700000
 70
 32
 40
0.000000
  0
VERTEX
  8
0
 10
0.000000
 20
0.000000
 30
0.700000
 70
 32
 40
0.000000
  0
VERTEX
  8
0
 10
0.000000
 20
0.000000
 30
0.700000
 70
 32
 40
0.000000
  0
VERTEX
  8
0
 10
0.000000
 20
0.000000
 30
0.700000
 70
 32
 40
0.000000
  0
VERTEX
  8
0
 10
0.000000
 20
0.000000
 30
0.700000
 70
 32
 40
0.000000
  0
SEQEND
  8
0
  0
POLYLINE
  8
0
 62
11
  6
CONTINUOUS
 66
  1
 70
  9
  0
VERTEX
  8
0
 10
0.000000
 20
0.000000
 30
0.700000
 70
 32
 40
0.000000
  0
VERTEX
  8
0
 10
0.000000
 20
0.000000
 30
0.700000
 70
 32
 40
0.000000
  0
VERTEX
  8
0
 10
0.000000
 20
0.000000
 30
0.700000
 70
 32
 40
0.000000
  0
VERTEX
  8
0
 10
0.000000
 20
0.000000
 30
0.700000
 70
 32
 40
0.000000
  0
VERTEX
  8
0
 10
0.000000
 20
0.000000
 30
0.700000
 70
 32
 40
0.000000
  0
VERTEX
  8
0
 10
0.000000
 20
0.000000
 30
0.700000
 70
 32
 40
0.000000
  0
VERTEX
  8
0
 10
0.000000
 20
0.000000
 30
0.700000
 70
 32
 40
0.000000
  0
VERTEX
  8
0
 10
0.000000
 20
0.000000
 30
0.700000
 70
 32
 40
0.000000
  0
VERTEX
  8
0
 10
0.000000
 20
0.000000
 30
0.700000
 70
 32
 40
0.000000
  0
VERTEX
  8
0
 10
0.000000
 20
0.000000
 30
0.700000
 70
 32
 40
0.000000
  0
SEQEND
  8
0
  0
POLYLINE
  8
0
 62
11
  6
CONTINUOUS
 66
  1
 70
  8
  0
VERTEX
  8
0
 10
0.650000
 20
0.024780
 30
0.637500
 70
 32
 40
0.000000
  0
VERTEX
  8
0
 10
0.650000
 20
0.022240
 30
0.638910
 70
 32
 40
0.000000
  0
VERTEX
  8
0
 10
0.650000
 20
0.019720
 30
0.640310
 70
 32
 40
0.000000
  0
VERTEX
  8
0
 10
0.650000
 20
0.017220
 30
0.641720
 70
 32
 40
0.000000
  0
VERTEX
  8
0
 10
0.650000
 20
0.014730
 30
0.643140
 70
 32
 40
0.000000
  0
VERTEX
  8
0
 10
0.650000
 20
0.012260
 30
0.644550
 70
 32
 40
0.000000
  0
VERTEX
  8
0
 10
0.650000
 20
0.009790
 30
0.645960
 70
 32
 40
0.000000
  0
VERTEX
  8
0
 10
0.650000
 20
0.007340
 30
0.647370
 70
 32
 40
0.000000
  0
VERTEX
  8
0
 10
0.650000
 20
0.006850
 30
0.647650
 70
 32
 40
0.000000
  0
VERTEX
  8
0
 10
0.650000
 20
0.004890
 30
0.648780
 70
 32
 40
0.000000
  0
VERTEX
  8
0
 10
0.650000
 20
0.002440
 30
0.650190
 70
 32
 40
0.000000
  0
VERTEX
  8
0
 10
0.650000
 20
0.000000
 30
0.651590
 70
 32
 40
0.000000
  0
SEQEND
  8
0
  0
POLYLINE
  8
0
 62
11
  6
CONTINUOUS
 66
  1
 70
  8
  0
VERTEX
  8
0
 10
0.650000
 20
-0.024780
 30
0.637500
 70
 32
 40
0.000000
  0
VERTEX
  8
0
 10
0.650000
 20
-0.022240
 30
0.638910
 70
 32
 40
0.000000
  0
VERTEX
  8
0
 10
0.650000
 20
-0.019720
 30
0.640310
 70
 32
 40
0.000000
  0
VERTEX
  8
0
 10
0.650000
 20
-0.017220
 30
0.641720
 70
 32
 40
0.000000
  0
VERTEX
  8
0
 10
0.650000
 20
-0.014730
 30
0.643140
 70
 32
 40
0.000000
  0
VERTEX
  8
0
 10
0.650000
 20
-0.012260
 30
0.644550
 70
 32
 40
0.000000
  0
VERTEX
  8
0
 10
0.650000
 20
-0.009790
 30
0.645960
 70
 32
 40
0.000000
  0
VERTEX
  8
0
 10
0.650000
 20
-0.007340
 30
0.647370
 70
 32
 40
0.000000
  0
VERTEX
  8
0
 10
0.650000
 20
-0.006850
 30
0.647650
 70
 32
 40
0.000000
  0
VERTEX
  8
0
 10
0.650000
 20
-0.004890
 30
0.648780
 70
 32
 40
0.000000
  0
VERTEX
  8
0
 10
0.650000
 20
-0.002440
 30
0.650190
 70
 32
 40
0.000000
  0
VERTEX
  8
0
 10
0.650000
 20
0.000000
 30
0.651590
 70
 32
 40
0.000000
  0
SEQEND
  8
0
  0
POLYLINE
  8
0
 62
11
  6
CONTINUOUS
 66
  1
 70
  8
  0
VERTEX
  8
0
 10
1.300000
 20
0.100000
 30
0.569000
 70
 32
 40
0.000000
  0
VERTEX
  8
0
 10
1.300000
 20
0.090000
 30
0.571000
 70
 32
 40
0.000000
  0
VERTEX
  8
0
 10
1.300000
 20
0.085530
 30
0.571890
 70
 32
 40
0.000000
  0
VERTEX
  8
0
 10
1.300000
 20
0.080000
 30
0.573000
 70
 32
 40
0.000000
  0
VERTEX
  8
0
 10
1.300000
 20
0.070000
 30
0.575000
 70
 32
 40
0.000000
  0
VERTEX
  8
0
 10
1.300000
 20
0.060000
 30
0.577000
 70
 32
 40
0.000000
  0
VERTEX
  8
0
 10
1.300000
 20
0.050000
 30
0.579000
 70
 32
 40
0.000000
  0
VERTEX
  8
0
 10
1.300000
 20
0.040000
 30
0.581000
 70
 32
 40
0.000000
  0
VERTEX
  8
0
 10
1.300000
 20
0.030000
 30
0.583000
 70
 32
 40
0.000000
  0
VERTEX
  8
0
 10
1.300000
 20
0.020000
 30
0.585000
 70
 32
 40
0.000000
  0
VERTEX
  8
0
 10
1.300000
 20
0.010000
 30
0.587000
 70
 32
 40
0.000000
  0
VERTEX
  8
0
 10
1.300000
 20
0.000000
 30
0.589000
 70
 32
 40
0.000000
  0
SEQEND
  8
0
  0
POLYLINE
  8
0
 62
11
  6
CONTINUOUS
 66
  1
 70
  8
  0
VERTEX
  8
0
 10
1.300000
 20
-0.100000
 30
0.569000
 70
 32
 40
0.000000
  0
VERTEX
  8
0
 10
1.300000
 20
-0.090000
 30
0.571000
 70
 32
 40
0.000000
  0
VERTEX
  8
0
 10
1.300000
 20
-0.085530
 30
0.571890
 70
 32
 40
0.000000
  0
VERTEX
  8
0
 10
1.300000
 20
-0.080000
 30
0.573000
 70
 32
 40
0.000000
  0
VERTEX
  8
0
 10
1.300000
 20
-0.070000
 30
0.575000
 70
 32
 40
0.000000
  0
VERTEX
  8
0
 10
1.300000
 20
-0.060000
 30
0.577000
 70
 32
 40
0.000000
  0
VERTEX
  8
0
 10
1.300000
 20
-0.050000
 30
0.579000
 70
 32
 40
0.000000
  0
VERTEX
  8
0
 10
1.300000
 20
-0.040000
 30
0.581000
 70
 32
 40
0.000000
  0
VERTEX
  8
0
 10
1.300000
 20
-0.030000
 30
0.583000
 70
 32
 40
0.000000
  0
VERTEX
  8
0
 10
1.300000
 20
-0.020000
 30
0.585000
 70
 32
 40
0.000000
  0
VERTEX
  8
0
 10
1.300000
 20
-0.010000
 30
0.587000
 70
 32
 40
0.000000
  0
VERTEX
  8
0
 10
1.300000
 20
0.000000
 30
0.589000
 70
 32
 40
0.000000
  0
SEQEND
  8
0
  0
POLYLINE
  8
0
 62
11
  6
CONTINUOUS
 66
  1
 70
  8
  0
VERTEX
  8
0
 10
1.950000
 20
0.201790
 30
0.500460
 70
 32
 40
0.000000
  0
VERTEX
  8
0
 10
1.950000
 20
0.181630
 30
0.502560
 70
 32
 40
0.000000
  0
VERTEX
  8
0
 10
1.950000
 20
0.161460
 30
0.504650
 70
 32
 40
0.000000
  0
VERTEX
  8
0
 10
1.950000
 20
0.141290
 30
0.506740
 70
 32
 40
0.000000
  0
VERTEX
  8
0
 10
1.950000
 20
0.121110
 30
0.508840
 70
 32
 40
0.000000
  0
VERTEX
  8
0
 10
1.950000
 20
0.100930
 30
0.510930
 70
 32
 40
0.000000
  0
VERTEX
  8
0
 10
1.950000
 20
0.080750
 30
0.513020
 70
 32
 40
0.000000
  0
VERTEX
  8
0
 10
1.950000
 20
0.060560
 30
0.515110
 70
 32
 40
0.000000
  0
VERTEX
  8
0
 10
1.950000
 20
0.040370
 30
0.517210
 70
 32
 40
0.000000
  0
VERTEX
  8
0
 10
1.950000
 20
0.020190
 30
0.519300
 70
 32
 40
0.000000
  0
VERTEX
  8
0
 10
1.950000
 20
0.000000
 30
0.521390
 70
 32
 40
0.000000
  0
SEQEND
  8
0
  0
POLYLINE
  8
0
 62
11
  6
CONTINUOUS
 66
  1
 70
  8
  0
VERTEX
  8
0
 10
1.950000
 20
-0.201790
 30
0.500460
 70
 32
 40
0.000000
  0
VERTEX
  8
0
 10
1.950000
 20
-0.181630
 30
0.502560
 70
 32
 40
0.000000
  0
VERTEX
  8
0
 10
1.950000
 20
-0.161460
 30
0.504650
 70
 32
 40
0.000000
  0
VERTEX
  8
0
 10
1.950000
 20
-0.141290
 30
0.506740
 70
 32
 40
0.000000
  0
VERTEX
  8
0
 10
1.950000
 20
-0.121110
 30
0.508840
 70
 32
 40
0.000000
  0
VERTEX
  8
0
 10
1.950000
 20
-0.100930
 30
0.510930
 70
 32
 40
0.000000
  0
VERTEX
  8
0
 10
1.950000
 20
-0.080750
 30
0.513020
 70
 32
 40
0.000000
  0
VERTEX
  8
0
 10
1.950000
 20
-0.060560
 30
0.515110
 70
 32
 40
0.000000
  0
VERTEX
  8
0
 10
1.950000
 20
-0.040370
 30
0.517210
 70
 32
 40
0.000000
  0
VERTEX
  8
0
 10
1.950000
 20
-0.020190
 30
0.519300
 70
 32
 40
0.000000
  0
VERTEX
  8
0
 10
1.950000
 20
0.000000
 30
0.521390
 70
 32
 40
0.000000
  0
SEQEND
  8
0
  0
POLYLINE
  8
0
 62
11
  6
CONTINUOUS
 66
  1
 70
  8
  0
VERTEX
  8
0
 10
2.600000
 20
0.305000
 30
0.438000
 70
 32
 40
0.000000
  0
VERTEX
  8
0
 10
2.600000
 20
0.274500
 30
0.440000
 70
 32
 40
0.000000
  0
VERTEX
  8
0
 10
2.600000
 20
0.244000
 30
0.442000
 70
 32
 40
0.000000
  0
VERTEX
  8
0
 10
2.600000
 20
0.213500
 30
0.444000
 70
 32
 40
0.000000
  0
VERTEX
  8
0
 10
2.600000
 20
0.183000
 30
0.446000
 70
 32
 40
0.000000
  0
VERTEX
  8
0
 10
2.600000
 20
0.152500
 30
0.448000
 70
 32
 40
0.000000
  0
VERTEX
  8
0
 10
2.600000
 20
0.122000
 30
0.450000
 70
 32
 40
0.000000
  0
VERTEX
  8
0
 10
2.600000
 20
0.091500
 30
0.452000
 70
 32
 40
0.000000
  0
VERTEX
  8
0
 10
2.600000
 20
0.061000
 30
0.454000
 70
 32
 40
0.000000
  0
VERTEX
  8
0
 10
2.600000
 20
0.030500
 30
0.456000
 70
 32
 40
0.000000
  0
VERTEX
  8
0
 10
2.600000
 20
0.000000
 30
0.458000
 70
 32
 40
0.000000
  0
SEQEND
  8
0
  0
POLYLINE
  8
0
 62
11
  6
CONTINUOUS
 66
  1
 70
  8
  0
VERTEX
  8
0
 10
2.600000
 20
-0.305000
 30
0.438000
 70
 32
 40
0.000000
  0
VERTEX
  8
0
 10
2.600000
 20
-0.274500
 30
0.440000
 70
 32
 40
0.000000
  0
VERTEX
  8
0
 10
2.600000
 20
-0.244000
 30
0.442000
 70
 32
 40
0.000000
  0
VERTEX
  8
0
 10
2.600000
 20
-0.213500
 30
0.444000
 70
 32
 40
0.000000
  0
VERTEX
  8
0
 10
2.600000
 20
-0.183000
 30
0.446000
 70
 32
 40
0.000000
  0
VERTEX
  8
0
 10
2.600000
 20
-0.152500
 30
0.448000
 70
 32
 40
0.000000
  0
VERTEX
  8
0
 10
2.600000
 20
-0.122000
 30
0.450000
 70
 32
 40
0.000000
  0
VERTEX
  8
0
 10
2.600000
 20
-0.091500
 30
0.452000
 70
 32
 40
0.000000
  0
VERTEX
  8
0
 10
2.600000
 20
-0.061000
 30
0.454000
 70
 32
 40
0.000000
  0
VERTEX
  8
0
 10
2.600000
 20
-0.030500
 30
0.456000
 70
 32
 40
0.000000
  0
VERTEX
  8
0
 10
2.600000
 20
0.000000
 30
0.458000
 70
 32
 40
0.000000
  0
SEQEND
  8
0
  0
POLYLINE
  8
0
 62
11
  6
CONTINUOUS
 66
  1
 70
  8
  0
VERTEX
  8
0
 10
3.250000
 20
0.387320
 30
0.386450
 70
 32
 40
0.000000
  0
VERTEX
  8
0
 10
3.250000
 20
0.348570
 30
0.388420
 70
 32
 40
0.000000
  0
VERTEX
  8
0
 10
3.250000
 20
0.309830
 30
0.390400
 70
 32
 40
0.000000
  0
VERTEX
  8
0
 10
3.250000
 20
0.271100
 30
0.392370
 70
 32
 40
0.000000
  0
VERTEX
  8
0
 10
3.250000
 20
0.232360
 30
0.394350
 70
 32
 40
0.000000
  0
VERTEX
  8
0
 10
3.250000
 20
0.193630
 30
0.396320
 70
 32
 40
0.000000
  0
VERTEX
  8
0
 10
3.250000
 20
0.154900
 30
0.398290
 70
 32
 40
0.000000
  0
VERTEX
  8
0
 10
3.250000
 20
0.116180
 30
0.400270
 70
 32
 40
0.000000
  0
VERTEX
  8
0
 10
3.250000
 20
0.077450
 30
0.402240
 70
 32
 40
0.000000
  0
VERTEX
  8
0
 10
3.250000
 20
0.038730
 30
0.404220
 70
 32
 40
0.000000
  0
VERTEX
  8
0
 10
3.250000
 20
0.000000
 30
0.406190
 70
 32
 40
0.000000
  0
SEQEND
  8
0
  0
POLYLINE
  8
0
 62
11
  6
CONTINUOUS
 66
  1
 70
  8
  0
VERTEX
  8
0
 10
3.250000
 20
-0.387320
 30
0.386450
 70
 32
 40
0.000000
  0
VERTEX
  8
0
 10
3.250000
 20
-0.348570
 30
0.388420
 70
 32
 40
0.000000
  0
VERTEX
  8
0
 10
3.250000
 20
-0.309830
 30
0.390400
 70
 32
 40
0.000000
  0
VERTEX
  8
0
 10
3.250000
 20
-0.271100
 30
0.392370
 70
 32
 40
0.000000
  0
VERTEX
  8
0
 10
3.250000
 20
-0.232360
 30
0.394350
 70
 32
 40
0.000000
  0
VERTEX
  8
0
 10
3.250000
 20
-0.193630
 30
0.396320
 70
 32
 40
0.000000
  0
VERTEX
  8
0
 10
3.250000
 20
-0.154900
 30
0.398290
 70
 32
 40
0.000000
  0
VERTEX
  8
0
 10
3.250000
 20
-0.116180
 30
0.400270
 70
 32
 40
0.000000
  0
VERTEX
  8
0
 10
3.250000
 20
-0.077450
 30
0.402240
 70
 32
 40
0.000000
  0
VERTEX
  8
0
 10
3.250000
 20
-0.038730
 30
0.404220
 70
 32
 40
0.000000
  0
VERTEX
  8
0
 10
3.250000
 20
0.000000
 30
0.406190
 70
 32
 40
0.000000
  0
SEQEND
  8
0
  0
POLYLINE
  8
0
 62
11
  6
CONTINUOUS
 66
  1
 70
  8
  0
VERTEX
  8
0
 10
3.900000
 20
0.438000
 30
0.346000
 70
 32
 40
0.000000
  0
VERTEX
  8
0
 10
3.900000
 20
0.394200
 30
0.348000
 70
 32
 40
0.000000
  0
VERTEX
  8
0
 10
3.900000
 20
0.350400
 30
0.350000
 70
 32
 40
0.000000
  0
VERTEX
  8
0
 10
3.900000
 20
0.306600
 30
0.352000
 70
 32
 40
0.000000
  0
VERTEX
  8
0
 10
3.900000
 20
0.262800
 30
0.354000
 70
 32
 40
0.000000
  0
VERTEX
  8
0
 10
3.900000
 20
0.219000
 30
0.356000
 70
 32
 40
0.000000
  0
VERTEX
  8
0
 10
3.900000
 20
0.175200
 30
0.358000
 70
 32
 40
0.000000
  0
VERTEX
  8
0
 10
3.900000
 20
0.131400
 30
0.360000
 70
 32
 40
0.000000
  0
VERTEX
  8
0
 10
3.900000
 20
0.087600
 30
0.362000
 70
 32
 40
0.000000
  0
VERTEX
  8
0
 10
3.900000
 20
0.043800
 30
0.364000
 70
 32
 40
0.000000
  0
VERTEX
  8
0
 10
3.900000
 20
0.000000
 30
0.366000
 70
 32
 40
0.000000
  0
SEQEND
  8
0
  0
POLYLINE
  8
0
 62
11
  6
CONTINUOUS
 66
  1
 70
  8
  0
VERTEX
  8
0
 10
3.900000
 20
-0.438000
 30
0.346000
 70
 32
 40
0.000000
  0
VERTEX
  8
0
 10
3.900000
 20
-0.394200
 30
0.348000
 70
 32
 40
0.000000
  0
VERTEX
  8
0
 10
3.900000
 20
-0.350400
 30
0.350000
 70
 32
 40
0.000000
  0
VERTEX
  8
0
 10
3.900000
 20
-0.306600
 30
0.352000
 70
 32
 40
0.000000
  0
VERTEX
  8
0
 10
3.900000
 20
-0.262800
 30
0.354000
 70
 32
 40
0.000000
  0
VERTEX
  8
0
 10
3.900000
 20
-0.219000
 30
0.356000
 70
 32
 40
0.000000
  0
VERTEX
  8
0
 10
3.900000
 20
-0.175200
 30
0.358000
 70
 32
 40
0.000000
  0
VERTEX
  8
0
 10
3.900000
 20
-0.131400
 30
0.360000
 70
 32
 40
0.000000
  0
VERTEX
  8
0
 10
3.900000
 20
-0.087600
 30
0.362000
 70
 32
 40
0.000000
  0
VERTEX
  8
0
 10
3.900000
 20
-0.043800
 30
0.364000
 70
 32
 40
0.000000
  0
VERTEX
  8
0
 10
3.900000
 20
0.000000
 30
0.366000
 70
 32
 40
0.000000
  0
SEQEND
  8
0
  0
POLYLINE
  8
0
 62
11
  6
CONTINUOUS
 66
  1
 70
  8
  0
VERTEX
  8
0
 10
4.550000
 20
0.450610
 30
0.315540
 70
 32
 40
0.000000
  0
VERTEX
  8
0
 10
4.550000
 20
0.405570
 30
0.317540
 70
 32
 40
0.000000
  0
VERTEX
  8
0
 10
4.550000
 20
0.360530
 30
0.319550
 70
 32
 40
0.000000
  0
VERTEX
  8
0
 10
4.550000
 20
0.315470
 30
0.321550
 70
 32
 40
0.000000
  0
VERTEX
  8
0
 10
4.550000
 20
0.270420
 30
0.323560
 70
 32
 40
0.000000
  0
VERTEX
  8
0
 10
4.550000
 20
0.225360
 30
0.325570
 70
 32
 40
0.000000
  0
VERTEX
  8
0
 10
4.550000
 20
0.180290
 30
0.327570
 70
 32
 40
0.000000
  0
VERTEX
  8
0
 10
4.550000
 20
0.135220
 30
0.329580
 70
 32
 40
0.000000
  0
VERTEX
  8
0
 10
4.550000
 20
0.090150
 30
0.331590
 70
 32
 40
0.000000
  0
VERTEX
  8
0
 10
4.550000
 20
0.045070
 30
0.333600
 70
 32
 40
0.000000
  0
VERTEX
  8
0
 10
4.550000
 20
0.000000
 30
0.335600
 70
 32
 40
0.000000
  0
SEQEND
  8
0
  0
POLYLINE
  8
0
 62
11
  6
CONTINUOUS
 66
  1
 70
  8
  0
VERTEX
  8
0
 10
4.550000
 20
-0.450610
 30
0.315540
 70
 32
 40
0.000000
  0
VERTEX
  8
0
 10
4.550000
 20
-0.405570
 30
0.317540
 70
 32
 40
0.000000
  0
VERTEX
  8
0
 10
4.550000
 20
-0.360530
 30
0.319550
 70
 32
 40
0.000000
  0
VERTEX
  8
0
 10
4.550000
 20
-0.315470
 30
0.321550
 70
 32
 40
0.000000
  0
VERTEX
  8
0
 10
4.550000
 20
-0.270420
 30
0.323560
 70
 32
 40
0.000000
  0
VERTEX
  8
0
 10
4.550000
 20
-0.225360
 30
0.325570
 70
 32
 40
0.000000
  0
VERTEX
  8
0
 10
4.550000
 20
-0.180290
 30
0.327570
 70
 32
 40
0.000000
  0
VERTEX
  8
0
 10
4.550000
 20
-0.135220
 30
0.329580
 70
 32
 40
0.000000
  0
VERTEX
  8
0
 10
4.550000
 20
-0.090150
 30
0.331590
 70
 32
 40
0.000000
  0
VERTEX
  8
0
 10
4.550000
 20
-0.045070
 30
0.333600
 70
 32
 40
0.000000
  0
VERTEX
  8
0
 10
4.550000
 20
0.000000
 30
0.335600
 70
 32
 40
0.000000
  0
SEQEND
  8
0
  0
POLYLINE
  8
0
 62
11
  6
CONTINUOUS
 66
  1
 70
  8
  0
VERTEX
  8
0
 10
5.200000
 20
0.424000
 30
0.293000
 70
 32
 40
0.000000
  0
VERTEX
  8
0
 10
5.200000
 20
0.386360
 30
0.294780
 70
 32
 40
0.000000
  0
VERTEX
  8
0
 10
5.200000
 20
0.381600
 30
0.295000
 70
 32
 40
0.000000
  0
VERTEX
  8
0
 10
5.200000
 20
0.339200
 30
0.297000
 70
 32
 40
0.000000
  0
VERTEX
  8
0
 10
5.200000
 20
0.296800
 30
0.299000
 70
 32
 40
0.000000
  0
VERTEX
  8
0
 10
5.200000
 20
0.254400
 30
0.301000
 70
 32
 40
0.000000
  0
VERTEX
  8
0
 10
5.200000
 20
0.212000
 30
0.303000
 70
 32
 40
0.000000
  0
VERTEX
  8
0
 10
5.200000
 20
0.169600
 30
0.305000
 70
 32
 40
0.000000
  0
VERTEX
  8
0
 10
5.200000
 20
0.127200
 30
0.307000
 70
 32
 40
0.000000
  0
VERTEX
  8
0
 10
5.200000
 20
0.084800
 30
0.309000
 70
 32
 40
0.000000
  0
VERTEX
  8
0
 10
5.200000
 20
0.042400
 30
0.311000
 70
 32
 40
0.000000
  0
VERTEX
  8
0
 10
5.200000
 20
0.000000
 30
0.313000
 70
 32
 40
0.000000
  0
SEQEND
  8
0
  0
POLYLINE
  8
0
 62
11
  6
CONTINUOUS
 66
  1
 70
  8
  0
VERTEX
  8
0
 10
5.200000
 20
-0.424000
 30
0.293000
 70
 32
 40
0.000000
  0
VERTEX
  8
0
 10
5.200000
 20
-0.386360
 30
0.294780
 70
 32
 40
0.000000
  0
VERTEX
  8
0
 10
5.200000
 20
-0.381600
 30
0.295000
 70
 32
 40
0.000000
  0
VERTEX
  8
0
 10
5.200000
 20
-0.339200
 30
0.297000
 70
 32
 40
0.000000
  0
VERTEX
  8
0
 10
5.200000
 20
-0.296800
 30
0.299000
 70
 32
 40
0.000000
  0
VERTEX
  8
0
 10
5.200000
 20
-0.254400
 30
0.301000
 70
 32
 40
0.000000
  0
VERTEX
  8
0
 10
5.200000
 20
-0.212000
 30
0.303000
 70
 32
 40
0.000000
  0
VERTEX
  8
0
 10
5.200000
 20
-0.169600
 30
0.305000
 70
 32
 40
0.000000
  0
VERTEX
  8
0
 10
5.200000
 20
-0.127200
 30
0.307000
 70
 32
 40
0.000000
  0
VERTEX
  8
0
 10
5.200000
 20
-0.084800
 30
0.309000
 70
 32
 40
0.000000
  0
VERTEX
  8
0
 10
5.200000
 20
-0.042400
 30
0.311000
 70
 32
 40
0.000000
  0
VERTEX
  8
0
 10
5.200000
 20
0.000000
 30
0.313000
 70
 32
 40
0.000000
  0
SEQEND
  8
0
  0
POLYLINE
  8
0
 62
11
  6
CONTINUOUS
 66
  1
 70
  8
  0
VERTEX
  8
0
 10
5.850000
 20
0.357810
 30
0.276200
 70
 32
 40
0.000000
  0
VERTEX
  8
0
 10
5.850000
 20
0.321980
 30
0.278200
 70
 32
 40
0.000000
  0
VERTEX
  8
0
 10
5.850000
 20
0.286160
 30
0.280200
 70
 32
 40
0.000000
  0
VERTEX
  8
0
 10
5.850000
 20
0.250360
 30
0.282190
 70
 32
 40
0.000000
  0
VERTEX
  8
0
 10
5.850000
 20
0.214570
 30
0.284190
 70
 32
 40
0.000000
  0
VERTEX
  8
0
 10
5.850000
 20
0.206290
 30
0.284650
 70
 32
 40
0.000000
  0
VERTEX
  8
0
 10
5.850000
 20
0.178790
 30
0.286180
 70
 32
 40
0.000000
  0
VERTEX
  8
0
 10
5.850000
 20
0.143020
 30
0.288170
 70
 32
 40
0.000000
  0
VERTEX
  8
0
 10
5.850000
 20
0.107260
 30
0.290170
 70
 32
 40
0.000000
  0
VERTEX
  8
0
 10
5.850000
 20
0.071510
 30
0.292160
 70
 32
 40
0.000000
  0
VERTEX
  8
0
 10
5.850000
 20
0.035750
 30
0.294150
 70
 32
 40
0.000000
  0
VERTEX
  8
0
 10
5.850000
 20
0.000000
 30
0.296140
 70
 32
 40
0.000000
  0
SEQEND
  8
0
  0
POLYLINE
  8
0
 62
11
  6
CONTINUOUS
 66
  1
 70
  8
  0
VERTEX
  8
0
 10
5.850000
 20
-0.357810
 30
0.276200
 70
 32
 40
0.000000
  0
VERTEX
  8
0
 10
5.850000
 20
-0.321980
 30
0.278200
 70
 32
 40
0.000000
  0
VERTEX
  8
0
 10
5.850000
 20
-0.286160
 30
0.280200
 70
 32
 40
0.000000
  0
VERTEX
  8
0
 10
5.850000
 20
-0.250360
 30
0.282190
 70
 32
 40
0.000000
  0
VERTEX
  8
0
 10
5.850000
 20
-0.214570
 30
0.284190
 70
 32
 40
0.000000
  0
VERTEX
  8
0
 10
5.850000
 20
-0.206290
 30
0.284650
 70
 32
 40
0.000000
  0
VERTEX
  8
0
 10
5.850000
 20
-0.178790
 30
0.286180
 70
 32
 40
0.000000
  0
VERTEX
  8
0
 10
5.850000
 20
-0.143020
 30
0.288170
 70
 32
 40
0.000000
  0
VERTEX
  8
0
 10
5.850000
 20
-0.107260
 30
0.290170
 70
 32
 40
0.000000
  0
VERTEX
  8
0
 10
5.850000
 20
-0.071510
 30
0.292160
 70
 32
 40
0.000000
  0
VERTEX
  8
0
 10
5.850000
 20
-0.035750
 30
0.294150
 70
 32
 40
0.000000
  0
VERTEX
  8
0
 10
5.850000
 20
0.000000
 30
0.296140
 70
 32
 40
0.000000
  0
SEQEND
  8
0
  0
POLYLINE
  8
0
 62
9
  6
CONTINUOUS
 66
  1
 70
  8
  0
VERTEX
  8
0
 10
0.301220
 20
0.100000
 30
0.312210
 70
 32
 40
0.000000
  0
VERTEX
  8
0
 10
0.318960
 20
0.100000
 30
0.258560
 70
 32
 40
0.000000
  0
VERTEX
  8
0
 10
0.327700
 20
0.100000
 30
0.235290
 70
 32
 40
0.000000
  0
VERTEX
  8
0
 10
0.359210
 20
0.100000
 30
0.165610
 70
 32
 40
0.000000
  0
VERTEX
  8
0
 10
0.397830
 20
0.100000
 30
0.103200
 70
 32
 40
0.000000
  0
VERTEX
  8
0
 10
0.446980
 20
0.100000
 30
0.047940
 70
 32
 40
0.000000
  0
VERTEX
  8
0
 10
0.512860
 20
0.100000
 30
-0.000630
 70
 32
 40
0.000000
  0
VERTEX
  8
0
 10
0.609870
 20
0.100000
 30
-0.044940
 70
 32
 40
0.000000
  0
VERTEX
  8
0
 10
0.641080
 20
0.100000
 30
-0.055590
 70
 32
 40
0.000000
  0
VERTEX
  8
0
 10
0.785190
 20
0.100000
 30
-0.094400
 70
 32
 40
0.000000
  0
VERTEX
  8
0
 10
0.965950
 20
0.100000
 30
-0.131260
 70
 32
 40
0.000000
  0
VERTEX
  8
0
 10
1.177790
 20
0.100000
 30
-0.167020
 70
 32
 40
0.000000
  0
VERTEX
  8
0
 10
1.290990
 20
0.100000
 30
-0.184140
 70
 32
 40
0.000000
  0
VERTEX
  8
0
 10
1.616330
 20
0.100000
 30
-0.227730
 70
 32
 40
0.000000
  0
VERTEX
  8
0
 10
1.942070
 20
0.100000
 30
-0.264150
 70
 32
 40
0.000000
  0
VERTEX
  8
0
 10
2.268230
 20
0.100000
 30
-0.293560
 70
 32
 40
0.000000
  0
VERTEX
  8
0
 10
2.594810
 20
0.100000
 30
-0.315600
 70
 32
 40
0.000000
  0
VERTEX
  8
0
 10
2.921750
 20
0.100000
 30
-0.329890
 70
 32
 40
0.000000
  0
VERTEX
  8
0
 10
3.248960
 20
0.100000
 30
-0.336670
 70
 32
 40
0.000000
  0
VERTEX
  8
0
 10
3.576260
 20
0.100000
 30
-0.336330
 70
 32
 40
0.000000
  0
VERTEX
  8
0
 10
3.903520
 20
0.100000
 30
-0.329260
 70
 32
 40
0.000000
  0
VERTEX
  8
0
 10
4.230560
 20
0.100000
 30
-0.315690
 70
 32
 40
0.000000
  0
VERTEX
  8
0
 10
4.557230
 20
0.100000
 30
-0.295440
 70
 32
 40
0.000000
  0
VERTEX
  8
0
 10
4.883340
 20
0.100000
 30
-0.268170
 70
 32
 40
0.000000
  0
VERTEX
  8
0
 10
5.208750
 20
0.100000
 30
-0.233560
 70
 32
 40
0.000000
  0
VERTEX
  8
0
 10
5.533260
 20
0.100000
 30
-0.191250
 70
 32
 40
0.000000
  0
VERTEX
  8
0
 10
5.856730
 20
0.100000
 30
-0.140860
 70
 32
 40
0.000000
  0
VERTEX
  8
0
 10
6.179010
 20
0.100000
 30
-0.081940
 70
 32
 40
0.000000
  0
VERTEX
  8
0
 10
6.215860
 20
0.100000
 30
-0.074630
 70
 32
 40
0.000000
  0
VERTEX
  8
0
 10
6.500000
 20
0.100000
 30
-0.014070
 70
 32
 40
0.000000
  0
SEQEND
  8
0
  0
POLYLINE
  8
0
 62
9
  6
CONTINUOUS
 66
  1
 70
  8
  0
VERTEX
  8
0
 10
0.301220
 20
-0.100000
 30
0.312210
 70
 32
 40
0.000000
  0
VERTEX
  8
0
 10
0.318960
 20
-0.100000
 30
0.258560
 70
 32
 40
0.000000
  0
VERTEX
  8
0
 10
0.327700
 20
-0.100000
 30
0.235290
 70
 32
 40
0.000000
  0
VERTEX
  8
0
 10
0.359210
 20
-0.100000
 30
0.165610
 70
 32
 40
0.000000
  0
VERTEX
  8
0
 10
0.397830
 20
-0.100000
 30
0.103200
 70
 32
 40
0.000000
  0
VERTEX
  8
0
 10
0.446980
 20
-0.100000
 30
0.047940
 70
 32
 40
0.000000
  0
VERTEX
  8
0
 10
0.512860
 20
-0.100000
 30
-0.000630
 70
 32
 40
0.000000
  0
VERTEX
  8
0
 10
0.609870
 20
-0.100000
 30
-0.044940
 70
 32
 40
0.000000
  0
VERTEX
  8
0
 10
0.641080
 20
-0.100000
 30
-0.055590
 70
 32
 40
0.000000
  0
VERTEX
  8
0
 10
0.785190
 20
-0.100000
 30
-0.094400
 70
 32
 40
0.000000
  0
VERTEX
  8
0
 10
0.965950
 20
-0.100000
 30
-0.131260
 70
 32
 40
0.000000
  0
VERTEX
  8
0
 10
1.177790
 20
-0.100000
 30
-0.167020
 70
 32
 40
0.000000
  0
VERTEX
  8
0
 10
1.290990
 20
-0.100000
 30
-0.184140
 70
 32
 40
0.000000
  0
VERTEX
  8
0
 10
1.616330
 20
-0.100000
 30
-0.227730
 70
 32
 40
0.000000
  0
VERTEX
  8
0
 10
1.942070
 20
-0.100000
 30
-0.264150
 70
 32
 40
0.000000
  0
VERTEX
  8
0
 10
2.268230
 20
-0.100000
 30
-0.293560
 70
 32
 40
0.000000
  0
VERTEX
  8
0
 10
2.594810
 20
-0.100000
 30
-0.315600
 70
 32
 40
0.000000
  0
VERTEX
  8
0
 10
2.921750
 20
-0.100000
 30
-0.329890
 70
 32
 40
0.000000
  0
VERTEX
  8
0
 10
3.248960
 20
-0.100000
 30
-0.336670
 70
 32
 40
0.000000
  0
VERTEX
  8
0
 10
3.576260
 20
-0.100000
 30
-0.336330
 70
 32
 40
0.000000
  0
VERTEX
  8
0
 10
3.903520
 20
-0.100000
 30
-0.329260
 70
 32
 40
0.000000
  0
VERTEX
  8
0
 10
4.230560
 20
-0.100000
 30
-0.315690
 70
 32
 40
0.000000
  0
VERTEX
  8
0
 10
4.557230
 20
-0.100000
 30
-0.295440
 70
 32
 40
0.000000
  0
VERTEX
  8
0
 10
4.883340
 20
-0.100000
 30
-0.268170
 70
 32
 40
0.000000
  0
VERTEX
  8
0
 10
5.208750
 20
-0.100000
 30
-0.233560
 70
 32
 40
0.000000
  0
VERTEX
  8
0
 10
5.533260
 20
-0.100000
 30
-0.191250
 70
 32
 40
0.000000
  0
VERTEX
  8
0
 10
5.856730
 20
-0.100000
 30
-0.140860
 70
 32
 40
0.000000
  0
VERTEX
  8
0
 10
6.179010
 20
-0.100000
 30
-0.081940
 70
 32
 40
0.000000
  0
VERTEX
  8
0
 10
6.215860
 20
-0.100000
 30
-0.074630
 70
 32
 40
0.000000
  0
VERTEX
  8
0
 10
6.500000
 20
-0.100000
 30
-0.014070
 70
 32
 40
0.000000
  0
SEQEND
  8
0
  0
POLYLINE
  8
0
 62
9
  6
CONTINUOUS
 66
  1
 70
  8
  0
VERTEX
  8
0
 10
0.764430
 20
0.200000
 30
0.303300
 70
 32
 40
0.000000
  0
VERTEX
  8
0
 10
0.795200
 20
0.200000
 30
0.213270
 70
 32
 40
0.000000
  0
VERTEX
  8
0
 10
0.840000
 20
0.200000
 30
0.132520
 70
 32
 40
0.000000
  0
VERTEX
  8
0
 10
0.903240
 20
0.200000
 30
0.060280
 70
 32
 40
0.000000
  0
VERTEX
  8
0
 10
0.960570
 20
0.200000
 30
0.015630
 70
 32
 40
0.000000
  0
VERTEX
  8
0
 10
0.993570
 20
0.200000
 30
-0.004700
 70
 32
 40
0.000000
  0
VERTEX
  8
0
 10
1.129990
 20
0.200000
 30
-0.065230
 70
 32
 40
0.000000
  0
VERTEX
  8
0
 10
1.285890
 20
0.200000
 30
-0.110910
 70
 32
 40
0.000000
  0
VERTEX
  8
0
 10
1.359950
 20
0.200000
 30
-0.128250
 70
 32
 40
0.000000
  0
VERTEX
  8
0
 10
1.612270
 20
0.200000
 30
-0.175920
 70
 32
 40
0.000000
  0
VERTEX
  8
0
 10
1.833920
 20
0.200000
 30
-0.208650
 70
 32
 40
0.000000
  0
VERTEX
  8
0
 10
1.938830
 20
0.200000
 30
-0.222050
 70
 32
 40
0.000000
  0
VERTEX
  8
0
 10
2.265570
 20
0.200000
 30
-0.256760
 70
 32
 40
0.000000
  0
VERTEX
  8
0
 10
2.592550
 20
0.200000
 30
-0.281990
 70
 32
 40
0.000000
  0
VERTEX
  8
0
 10
2.919760
 20
0.200000
 30
-0.298350
 70
 32
 40
0.000000
  0
VERTEX
  8
0
 10
3.247140
 20
0.200000
 30
-0.306480
 70
 32
 40
0.000000
  0
VERTEX
  8
0
 10
3.574580
 20
0.200000
 30
-0.307000
 70
 32
 40
0.000000
  0
VERTEX
  8
0
 10
3.901940
 20
0.200000
 30
-0.300380
 70
 32
 40
0.000000
  0
VERTEX
  8
0
 10
4.229080
 20
0.200000
 30
-0.286860
 70
 32
 40
0.000000
  0
VERTEX
  8
0
 10
4.555850
 20
0.200000
 30
-0.266230
 70
 32
 40
0.000000
  0
VERTEX
  8
0
 10
4.882070
 20
0.200000
 30
-0.238090
 70
 32
 40
0.000000
  0
VERTEX
  8
0
 10
5.207580
 20
0.200000
 30
-0.201990
 70
 32
 40
0.000000
  0
VERTEX
  8
0
 10
5.504520
 20
0.200000
 30
-0.161550
 70
 32
 40
0.000000
  0
VERTEX
  8
0
 10
5.532220
 20
0.200000
 30
-0.157390
 70
 32
 40
0.000000
  0
VERTEX
  8
0
 10
5.855870
 20
0.200000
 30
-0.103590
 70
 32
 40
0.000000
  0
VERTEX
  8
0
 10
6.145710
 20
0.200000
 30
-0.046640
 70
 32
 40
0.000000
  0
VERTEX
  8
0
 10
6.178440
 20
0.200000
 30
-0.039640
 70
 32
 40
0.000000
  0
VERTEX
  8
0
 10
6.443850
 20
0.200000
 30
0.021700
 70
 32
 40
0.000000
  0
VERTEX
  8
0
 10
6.500000
 20
0.200000
 30
0.035810
 70
 32
 40
0.000000
  0
SEQEND
  8
0
  0
POLYLINE
  8
0
 62
9
  6
CONTINUOUS
 66
  1
 70
  8
  0
VERTEX
  8
0
 10
0.764430
 20
-0.200000
 30
0.303300
 70
 32
 40
0.000000
  0
VERTEX
  8
0
 10
0.795200
 20
-0.200000
 30
0.213270
 70
 32
 40
0.000000
  0
VERTEX
  8
0
 10
0.840000
 20
-0.200000
 30
0.132520
 70
 32
 40
0.000000
  0
VERTEX
  8
0
 10
0.903240
 20
-0.200000
 30
0.060280
 70
 32
 40
0.000000
  0
VERTEX
  8
0
 10
0.960570
 20
-0.200000
 30
0.015630
 70
 32
 40
0.000000
  0
VERTEX
  8
0
 10
0.993570
 20
-0.200000
 30
-0.004700
 70
 32
 40
0.000000
  0
VERTEX
  8
0
 10
1.129990
 20
-0.200000
 30
-0.065230
 70
 32
 40
0.000000
  0
VERTEX
  8
0
 10
1.285890
 20
-0.200000
 30
-0.110910
 70
 32
 40
0.000000
  0
VERTEX
  8
0
 10
1.359950
 20
-0.200000
 30
-0.128250
 70
 32
 40
0.000000
  0
VERTEX
  8
0
 10
1.612270
 20
-0.200000
 30
-0.175920
 70
 32
 40
0.000000
  0
VERTEX
  8
0
 10
1.833920
 20
-0.200000
 30
-0.208650
 70
 32
 40
0.000000
  0
VERTEX
  8
0
 10
1.938830
 20
-0.200000
 30
-0.222050
 70
 32
 40
0.000000
  0
VERTEX
  8
0
 10
2.265570
 20
-0.200000
 30
-0.256760
 70
 32
 40
0.000000
  0
VERTEX
  8
0
 10
2.592550
 20
-0.200000
 30
-0.281990
 70
 32
 40
0.000000
  0
VERTEX
  8
0
 10
2.919760
 20
-0.200000
 30
-0.298350
 70
 32
 40
0.000000
  0
VERTEX
  8
0
 10
3.247140
 20
-0.200000
 30
-0.306480
 70
 32
 40
0.000000
  0
VERTEX
  8
0
 10
3.574580
 20
-0.200000
 30
-0.307000
 70
 32
 40
0.000000
  0
VERTEX
  8
0
 10
3.901940
 20
-0.200000
 30
-0.300380
 70
 32
 40
0.000000
  0
VERTEX
  8
0
 10
4.229080
 20
-0.200000
 30
-0.286860
 70
 32
 40
0.000000
  0
VERTEX
  8
0
 10
4.555850
 20
-0.200000
 30
-0.266230
 70
 32
 40
0.000000
  0
VERTEX
  8
0
 10
4.882070
 20
-0.200000
 30
-0.238090
 70
 32
 40
0.000000
  0
VERTEX
  8
0
 10
5.207580
 20
-0.200000
 30
-0.201990
 70
 32
 40
0.000000
  0
VERTEX
  8
0
 10
5.504520
 20
-0.200000
 30
-0.161550
 70
 32
 40
0.000000
  0
VERTEX
  8
0
 10
5.532220
 20
-0.200000
 30
-0.157390
 70
 32
 40
0.000000
  0
VERTEX
  8
0
 10
5.855870
 20
-0.200000
 30
-0.103590
 70
 32
 40
0.000000
  0
VERTEX
  8
0
 10
6.145710
 20
-0.200000
 30
-0.046640
 70
 32
 40
0.000000
  0
VERTEX
  8
0
 10
6.178440
 20
-0.200000
 30
-0.039640
 70
 32
 40
0.000000
  0
VERTEX
  8
0
 10
6.443850
 20
-0.200000
 30
0.021700
 70
 32
 40
0.000000
  0
VERTEX
  8
0
 10
6.500000
 20
-0.200000
 30
0.035810
 70
 32
 40
0.000000
  0
SEQEND
  8
0
  0
POLYLINE
  8
0
 62
9
  6
CONTINUOUS
 66
  1
 70
  8
  0
VERTEX
  8
0
 10
1.294230
 20
0.300000
 30
0.293110
 70
 32
 40
0.000000
  0
VERTEX
  8
0
 10
1.311050
 20
0.300000
 30
0.198720
 70
 32
 40
0.000000
  0
VERTEX
  8
0
 10
1.360590
 20
0.300000
 30
0.113220
 70
 32
 40
0.000000
  0
VERTEX
  8
0
 10
1.449070
 20
0.300000
 30
0.035420
 70
 32
 40
0.000000
  0
VERTEX
  8
0
 10
1.594850
 20
0.300000
 30
-0.037090
 70
 32
 40
0.000000
  0
VERTEX
  8
0
 10
1.607120
 20
0.300000
 30
-0.041710
 70
 32
 40
0.000000
  0
VERTEX
  8
0
 10
1.848300
 20
0.300000
 30
-0.110050
 70
 32
 40
0.000000
  0
VERTEX
  8
0
 10
1.934110
 20
0.300000
 30
-0.128020
 70
 32
 40
0.000000
  0
VERTEX
  8
0
 10
2.261490
 20
0.300000
 30
-0.180110
 70
 32
 40
0.000000
  0
VERTEX
  8
0
 10
2.403470
 20
0.300000
 30
-0.196920
 70
 32
 40
0.000000
  0
VERTEX
  8
0
 10
2.589000
 20
0.300000
 30
-0.214820
 70
 32
 40
0.000000
  0
VERTEX
  8
0
 10
2.916590
 20
0.300000
 30
-0.236930
 70
 32
 40
0.000000
  0
VERTEX
  8
0
 10
3.244230
 20
0.300000
 30
-0.248750
 70
 32
 40
0.000000
  0
VERTEX
  8
0
 10
3.571860
 20
0.300000
 30
-0.251610
 70
 32
 40
0.000000
  0
VERTEX
  8
0
 10
3.899390
 20
0.300000
 30
-0.246300
 70
 32
 40
0.000000
  0
VERTEX
  8
0
 10
4.226710
 20
0.300000
 30
-0.233160
 70
 32
 40
0.000000
  0
VERTEX
  8
0
 10
4.553650
 20
0.300000
 30
-0.211930
 70
 32
 40
0.000000
  0
VERTEX
  8
0
 10
4.832020
 20
0.300000
 30
-0.187060
 70
 32
 40
0.000000
  0
VERTEX
  8
0
 10
4.880050
 20
0.300000
 30
-0.182100
 70
 32
 40
0.000000
  0
VERTEX
  8
0
 10
5.205770
 20
0.300000
 30
-0.142980
 70
 32
 40
0.000000
  0
VERTEX
  8
0
 10
5.530700
 20
0.300000
 30
-0.093540
 70
 32
 40
0.000000
  0
VERTEX
  8
0
 10
5.662800
 20
0.300000
 30
-0.070110
 70
 32
 40
0.000000
  0
VERTEX
  8
0
 10
5.854740
 20
0.300000
 30
-0.032160
 70
 32
 40
0.000000
  0
VERTEX
  8
0
 10
6.025950
 20
0.300000
 30
0.006460
 70
 32
 40
0.000000
  0
VERTEX
  8
0
 10
6.177820
 20
0.300000
 30
0.045660
 70
 32
 40
0.000000
  0
VERTEX
  8
0
 10
6.238810
 20
0.300000
 30
0.063050
 70
 32
 40
0.000000
  0
VERTEX
  8
0
 10
6.386500
 20
0.300000
 30
0.110080
 70
 32
 40
0.000000
  0
VERTEX
  8
0
 10
6.500000
 20
0.300000
 30
0.151340
 70
 32
 40
0.000000
  0
SEQEND
  8
0
  0
POLYLINE
  8
0
 62
9
  6
CONTINUOUS
 66
  1
 70
  8
  0
VERTEX
  8
0
 10
1.294230
 20
-0.300000
 30
0.293110
 70
 32
 40
0.000000
  0
VERTEX
  8
0
 10
1.311050
 20
-0.300000
 30
0.198720
 70
 32
 40
0.000000
  0
VERTEX
  8
0
 10
1.360590
 20
-0.300000
 30
0.113220
 70
 32
 40
0.000000
  0
VERTEX
  8
0
 10
1.449070
 20
-0.300000
 30
0.035420
 70
 32
 40
0.000000
  0
VERTEX
  8
0
 10
1.594850
 20
-0.300000
 30
-0.037090
 70
 32
 40
0.000000
  0
VERTEX
  8
0
 10
1.607120
 20
-0.300000
 30
-0.041710
 70
 32
 40
0.000000
  0
VERTEX
  8
0
 10
1.848300
 20
-0.300000
 30
-0.110050
 70
 32
 40
0.000000
  0
VERTEX
  8
0
 10
1.934110
 20
-0.300000
 30
-0.128020
 70
 32
 40
0.000000
  0
VERTEX
  8
0
 10
2.261490
 20
-0.300000
 30
-0.180110
 70
 32
 40
0.000000
  0
VERTEX
  8
0
 10
2.403470
 20
-0.300000
 30
-0.196920
 70
 32
 40
0.000000
  0
VERTEX
  8
0
 10
2.589000
 20
-0.300000
 30
-0.214820
 70
 32
 40
0.000000
  0
VERTEX
  8
0
 10
2.916590
 20
-0.300000
 30
-0.236930
 70
 32
 40
0.000000
  0
VERTEX
  8
0
 10
3.244230
 20
-0.300000
 30
-0.248750
 70
 32
 40
0.000000
  0
VERTEX
  8
0
 10
3.571860
 20
-0.300000
 30
-0.251610
 70
 32
 40
0.000000
  0
VERTEX
  8
0
 10
3.899390
 20
-0.300000
 30
-0.246300
 70
 32
 40
0.000000
  0
VERTEX
  8
0
 10
4.226710
 20
-0.300000
 30
-0.233160
 70
 32
 40
0.000000
  0
VERTEX
  8
0
 10
4.553650
 20
-0.300000
 30
-0.211930
 70
 32
 40
0.000000
  0
VERTEX
  8
0
 10
4.832020
 20
-0.300000
 30
-0.187060
 70
 32
 40
0.000000
  0
VERTEX
  8
0
 10
4.880050
 20
-0.300000
 30
-0.182100
 70
 32
 40
0.000000
  0
VERTEX
  8
0
 10
5.205770
 20
-0.300000
 30
-0.142980
 70
 32
 40
0.000000
  0
VERTEX
  8
0
 10
5.530700
 20
-0.300000
 30
-0.093540
 70
 32
 40
0.000000
  0
VERTEX
  8
0
 10
5.662800
 20
-0.300000
 30
-0.070110
 70
 32
 40
0.000000
  0
VERTEX
  8
0
 10
5.854740
 20
-0.300000
 30
-0.032160
 70
 32
 40
0.000000
  0
VERTEX
  8
0
 10
6.025950
 20
-0.300000
 30
0.006460
 70
 32
 40
0.000000
  0
VERTEX
  8
0
 10
6.177820
 20
-0.300000
 30
0.045660
 70
 32
 40
0.000000
  0
VERTEX
  8
0
 10
6.238810
 20
-0.300000
 30
0.063050
 70
 32
 40
0.000000
  0
VERTEX
  8
0
 10
6.386500
 20
-0.300000
 30
0.110080
 70
 32
 40
0.000000
  0
VERTEX
  8
0
 10
6.500000
 20
-0.300000
 30
0.151340
 70
 32
 40
0.000000
  0
SEQEND
  8
0
  0
POLYLINE
  8
0
 62
9
  6
CONTINUOUS
 66
  1
 70
  8
  0
VERTEX
  8
0
 10
1.941450
 20
0.400000
 30
0.280660
 70
 32
 40
0.000000
  0
VERTEX
  8
0
 10
1.930590
 20
0.400000
 30
0.259690
 70
 32
 40
0.000000
  0
VERTEX
  8
0
 10
1.922640
 20
0.400000
 30
0.188870
 70
 32
 40
0.000000
  0
VERTEX
  8
0
 10
1.929880
 20
0.400000
 30
0.164980
 70
 32
 40
0.000000
  0
VERTEX
  8
0
 10
1.975050
 20
0.400000
 30
0.102730
 70
 32
 40
0.000000
  0
VERTEX
  8
0
 10
2.109410
 20
0.400000
 30
0.021400
 70
 32
 40
0.000000
  0
VERTEX
  8
0
 10
2.256550
 20
0.400000
 30
-0.028510
 70
 32
 40
0.000000
  0
VERTEX
  8
0
 10
2.385730
 20
0.400000
 30
-0.059300
 70
 32
 40
0.000000
  0
VERTEX
  8
0
 10
2.584440
 20
0.400000
 30
-0.093850
 70
 32
 40
0.000000
  0
VERTEX
  8
0
 10
2.912430
 20
0.400000
 30
-0.130680
 70
 32
 40
0.000000
  0
VERTEX
  8
0
 10
3.240410
 20
0.400000
 30
-0.151180
 70
 32
 40
0.000000
  0
VERTEX
  8
0
 10
3.568330
 20
0.400000
 30
-0.159440
 70
 32
 40
0.000000
  0
VERTEX
  8
0
 10
3.896140
 20
0.400000
 30
-0.157250
 70
 32
 40
0.000000
  0
VERTEX
  8
0
 10
4.223750
 20
0.400000
 30
-0.145300
 70
 32
 40
0.000000
  0
VERTEX
  8
0
 10
4.551000
 20
0.400000
 30
-0.123290
 70
 32
 40
0.000000
  0
VERTEX
  8
0
 10
4.877750
 20
0.400000
 30
-0.090340
 70
 32
 40
0.000000
  0
VERTEX
  8
0
 10
5.100440
 20
0.400000
 30
-0.060690
 70
 32
 40
0.000000
  0
VERTEX
  8
0
 10
5.203850
 20
0.400000
 30
-0.044630
 70
 32
 40
0.000000
  0
VERTEX
  8
0
 10
5.529130
 20
0.400000
 30
0.018060
 70
 32
 40
0.000000
  0
VERTEX
  8
0
 10
5.539710
 20
0.400000
 30
0.020480
 70
 32
 40
0.000000
  0
VERTEX
  8
0
 10
5.784080
 20
0.400000
 30
0.086610
 70
 32
 40
0.000000
  0
VERTEX
  8
0
 10
5.853470
 20
0.400000
 30
0.110230
 70
 32
 40
0.000000
  0
VERTEX
  8
0
 10
5.942650
 20
0.400000
 30
0.145600
 70
 32
 40
0.000000
  0
VERTEX
  8
0
 10
6.053000
 20
0.400000
 30
0.201600
 70
 32
 40
0.000000
  0
SEQEND
  8
0
  0
POLYLINE
  8
0
 62
9
  6
CONTINUOUS
 66
  1
 70
  8
  0
VERTEX
  8
0
 10
1.941450
 20
-0.400000
 30
0.280660
 70
 32
 40
0.000000
  0
VERTEX
  8
0
 10
1.930590
 20
-0.400000
 30
0.259690
 70
 32
 40
0.000000
  0
VERTEX
  8
0
 10
1.922640
 20
-0.400000
 30
0.188870
 70
 32
 40
0.000000
  0
VERTEX
  8
0
 10
1.929880
 20
-0.400000
 30
0.164980
 70
 32
 40
0.000000
  0
VERTEX
  8
0
 10
1.975050
 20
-0.400000
 30
0.102730
 70
 32
 40
0.000000
  0
VERTEX
  8
0
 10
2.109410
 20
-0.400000
 30
0.021400
 70
 32
 40
0.000000
  0
VERTEX
  8
0
 10
2.256550
 20
-0.400000
 30
-0.028510
 70
 32
 40
0.000000
  0
VERTEX
  8
0
 10
2.385730
 20
-0.400000
 30
-0.059300
 70
 32
 40
0.000000
  0
VERTEX
  8
0
 10
2.584440
 20
-0.400000
 30
-0.093850
 70
 32
 40
0.000000
  0
VERTEX
  8
0
 10
2.912430
 20
-0.400000
 30
-0.130680
 70
 32
 40
0.000000
  0
VERTEX
  8
0
 10
3.240410
 20
-0.400000
 30
-0.151180
 70
 32
 40
0.000000
  0
VERTEX
  8
0
 10
3.568330
 20
-0.400000
 30
-0.159440
 70
 32
 40
0.000000
  0
VERTEX
  8
0
 10
3.896140
 20
-0.400000
 30
-0.157250
 70
 32
 40
0.000000
  0
VERTEX
  8
0
 10
4.223750
 20
-0.400000
 30
-0.145300
 70
 32
 40
0.000000
  0
VERTEX
  8
0
 10
4.551000
 20
-0.400000
 30
-0.123290
 70
 32
 40
0.000000
  0
VERTEX
  8
0
 10
4.877750
 20
-0.400000
 30
-0.090340
 70
 32
 40
0.000000
  0
VERTEX
  8
0
 10
5.100440
 20
-0.400000
 30
-0.060690
 70
 32
 40
0.000000
  0
VERTEX
  8
0
 10
5.203850
 20
-0.400000
 30
-0.044630
 70
 32
 40
0.000000
  0
VERTEX
  8
0
 10
5.529130
 20
-0.400000
 30
0.018060
 70
 32
 40
0.000000
  0
VERTEX
  8
0
 10
5.539710
 20
-0.400000
 30
0.020480
 70
 32
 40
0.000000
  0
VERTEX
  8
0
 10
5.784080
 20
-0.400000
 30
0.086610
 70
 32
 40
0.000000
  0
VERTEX
  8
0
 10
5.853470
 20
-0.400000
 30
0.110230
 70
 32
 40
0.000000
  0
VERTEX
  8
0
 10
5.942650
 20
-0.400000
 30
0.145600
 70
 32
 40
0.000000
  0
VERTEX
  8
0
 10
6.053000
 20
-0.400000
 30
0.201600
 70
 32
 40
0.000000
  0
SEQEND
  8
0
  0
POLYLINE
  8
0
 62
9
  6
CONTINUOUS
 66
  1
 70
  8
  0
VERTEX
  8
0
 10
2.903310
 20
0.500000
 30
0.262170
 70
 32
 40
0.000000
  0
VERTEX
  8
0
 10
2.826410
 20
0.500000
 30
0.175020
 70
 32
 40
0.000000
  0
VERTEX
  8
0
 10
2.907820
 20
0.500000
 30
0.104500
 70
 32
 40
0.000000
  0
VERTEX
  8
0
 10
2.954200
 20
0.500000
 30
0.086790
 70
 32
 40
0.000000
  0
VERTEX
  8
0
 10
3.236000
 20
0.500000
 30
0.029210
 70
 32
 40
0.000000
  0
VERTEX
  8
0
 10
3.564320
 20
0.500000
 30
0.002630
 70
 32
 40
0.000000
  0
VERTEX
  8
0
 10
3.892540
 20
0.500000
 30
-0.002440
 70
 32
 40
0.000000
  0
VERTEX
  8
0
 10
4.220530
 20
0.500000
 30
0.009110
 70
 32
 40
0.000000
  0
VERTEX
  8
0
 10
4.548120
 20
0.500000
 30
0.038600
 70
 32
 40
0.000000
  0
VERTEX
  8
0
 10
4.723670
 20
0.500000
 30
0.063960
 70
 32
 40
0.000000
  0
VERTEX
  8
0
 10
4.875130
 20
0.500000
 30
0.093670
 70
 32
 40
0.000000
  0
VERTEX
  8
0
 10
5.045220
 20
0.500000
 30
0.141860
 70
 32
 40
0.000000
  0
VERTEX
  8
0
 10
5.187360
 20
0.500000
 30
0.218240
 70
 32
 40
0.000000
  0
SEQEND
  8
0
  0
POLYLINE
  8
0
 62
9
  6
CONTINUOUS
 66
  1
 70
  8
  0
VERTEX
  8
0
 10
2.903310
 20
-0.500000
 30
0.262170
 70
 32
 40
0.000000
  0
VERTEX
  8
0
 10
2.826410
 20
-0.500000
 30
0.175020
 70
 32
 40
0.000000
  0
VERTEX
  8
0
 10
2.907820
 20
-0.500000
 30
0.104500
 70
 32
 40
0.000000
  0
VERTEX
  8
0
 10
2.954200
 20
-0.500000
 30
0.086790
 70
 32
 40
0.000000
  0
VERTEX
  8
0
 10
3.236000
 20
-0.500000
 30
0.029210
 70
 32
 40
0.000000
  0
VERTEX
  8
0
 10
3.564320
 20
-0.500000
 30
0.002630
 70
 32
 40
0.000000
  0
VERTEX
  8
0
 10
3.892540
 20
-0.500000
 30
-0.002440
 70
 32
 40
0.000000
  0
VERTEX
  8
0
 10
4.220530
 20
-0.500000
 30
0.009110
 70
 32
 40
0.000000
  0
VERTEX
  8
0
 10
4.548120
 20
-0.500000
 30
0.038600
 70
 32
 40
0.000000
  0
VERTEX
  8
0
 10
4.723670
 20
-0.500000
 30
0.063960
 70
 32
 40
0.000000
  0
VERTEX
  8
0
 10
4.875130
 20
-0.500000
 30
0.093670
 70
 32
 40
0.000000
  0
VERTEX
  8
0
 10
5.045220
 20
-0.500000
 30
0.141860
 70
 32
 40
0.000000
  0
VERTEX
  8
0
 10
5.187360
 20
-0.500000
 30
0.218240
 70
 32
 40
0.000000
  0
SEQEND
  8
0
  0
POLYLINE
  8
0
 62
9
  6
CONTINUOUS
 66
  1
 70
  8
  0
VERTEX
  8
0
 10
1.300000
 20
0.100000
 30
0.569000
 70
 32
 40
0.000000
  0
VERTEX
  8
0
 10
1.031510
 20
0.100000
 30
0.594650
 70
 32
 40
0.000000
  0
VERTEX
  8
0
 10
0.974840
 20
0.100000
 30
0.599040
 70
 32
 40
0.000000
  0
VERTEX
  8
0
 10
0.806900
 20
0.100000
 30
0.608570
 70
 32
 40
0.000000
  0
VERTEX
  8
0
 10
0.647630
 20
0.100000
 30
0.609260
 70
 32
 40
0.000000
  0
VERTEX
  8
0
 10
0.637660
 20
0.100000
 30
0.608840
 70
 32
 40
0.000000
  0
VERTEX
  8
0
 10
0.518340
 20
0.100000
 30
0.596050
 70
 32
 40
0.000000
  0
VERTEX
  8
0
 10
0.436300
 20
0.100000
 30
0.571720
 70
 32
 40
0.000000
  0
VERTEX
  8
0
 10
0.380450
 20
0.100000
 30
0.537180
 70
 32
 40
0.000000
  0
VERTEX
  8
0
 10
0.342970
 20
0.100000
 30
0.493390
 70
 32
 40
0.000000
  0
VERTEX
  8
0
 10
0.319370
 20
0.100000
 30
0.442260
 70
 32
 40
0.000000
  0
VERTEX
  8
0
 10
0.318960
 20
0.100000
 30
0.441000
 70
 32
 40
0.000000
  0
VERTEX
  8
0
 10
0.305540
 20
0.100000
 30
0.380480
 70
 32
 40
0.000000
  0
VERTEX
  8
0
 10
0.301220
 20
0.100000
 30
0.312210
 70
 32
 40
0.000000
  0
SEQEND
  8
0
  0
POLYLINE
  8
0
 62
9
  6
CONTINUOUS
 66
  1
 70
  8
  0
VERTEX
  8
0
 10
1.300000
 20
-0.100000
 30
0.569000
 70
 32
 40
0.000000
  0
VERTEX
  8
0
 10
1.031510
 20
-0.100000
 30
0.594650
 70
 32
 40
0.000000
  0
VERTEX
  8
0
 10
0.974840
 20
-0.100000
 30
0.599040
 70
 32
 40
0.000000
  0
VERTEX
  8
0
 10
0.806900
 20
-0.100000
 30
0.608570
 70
 32
 40
0.000000
  0
VERTEX
  8
0
 10
0.647630
 20
-0.100000
 30
0.609260
 70
 32
 40
0.000000
  0
VERTEX
  8
0
 10
0.637660
 20
-0.100000
 30
0.608840
 70
 32
 40
0.000000
  0
VERTEX
  8
0
 10
0.518340
 20
-0.100000
 30
0.596050
 70
 32
 40
0.000000
  0
VERTEX
  8
0
 10
0.436300
 20
-0.100000
 30
0.571720
 70
 32
 40
0.000000
  0
VERTEX
  8
0
 10
0.380450
 20
-0.100000
 30
0.537180
 70
 32
 40
0.000000
  0
VERTEX
  8
0
 10
0.342970
 20
-0.100000
 30
0.493390
 70
 32
 40
0.000000
  0
VERTEX
  8
0
 10
0.319370
 20
-0.100000
 30
0.442260
 70
 32
 40
0.000000
  0
VERTEX
  8
0
 10
0.318960
 20
-0.100000
 30
0.441000
 70
 32
 40
0.000000
  0
VERTEX
  8
0
 10
0.305540
 20
-0.100000
 30
0.380480
 70
 32
 40
0.000000
  0
VERTEX
  8
0
 10
0.301220
 20
-0.100000
 30
0.312210
 70
 32
 40
0.000000
  0
SEQEND
  8
0
  0
POLYLINE
  8
0
 62
9
  6
CONTINUOUS
 66
  1
 70
  8
  0
VERTEX
  8
0
 10
1.939120
 20
0.200000
 30
0.501580
 70
 32
 40
0.000000
  0
VERTEX
  8
0
 10
1.699850
 20
0.200000
 30
0.524030
 70
 32
 40
0.000000
  0
VERTEX
  8
0
 10
1.619440
 20
0.200000
 30
0.530410
 70
 32
 40
0.000000
  0
VERTEX
  8
0
 10
1.478000
 20
0.200000
 30
0.539560
 70
 32
 40
0.000000
  0
VERTEX
  8
0
 10
1.292840
 20
0.200000
 30
0.545670
 70
 32
 40
0.000000
  0
VERTEX
  8
0
 10
1.284200
 20
0.200000
 30
0.545730
 70
 32
 40
0.000000
  0
VERTEX
  8
0
 10
1.125070
 20
0.200000
 30
0.541090
 70
 32
 40
0.000000
  0
VERTEX
  8
0
 10
1.000980
 20
0.200000
 30
0.525370
 70
 32
 40
0.000000
  0
VERTEX
  8
0
 10
0.964870
 20
0.200000
 30
0.517230
 70
 32
 40
0.000000
  0
VERTEX
  8
0
 10
0.908350
 20
0.200000
 30
0.499060
 70
 32
 40
0.000000
  0
VERTEX
  8
0
 10
0.842090
 20
0.200000
 30
0.462910
 70
 32
 40
0.000000
  0
VERTEX
  8
0
 10
0.797910
 20
0.200000
 30
0.417730
 70
 32
 40
0.000000
  0
VERTEX
  8
0
 10
0.772650
 20
0.200000
 30
0.364290
 70
 32
 40
0.000000
  0
VERTEX
  8
0
 10
0.764430
 20
0.200000
 30
0.303300
 70
 32
 40
0.000000
  0
SEQEND
  8
0
  0
POLYLINE
  8
0
 62
9
  6
CONTINUOUS
 66
  1
 70
  8
  0
VERTEX
  8
0
 10
1.939120
 20
-0.200000
 30
0.501580
 70
 32
 40
0.000000
  0
VERTEX
  8
0
 10
1.699850
 20
-0.200000
 30
0.524030
 70
 32
 40
0.000000
  0
VERTEX
  8
0
 10
1.619440
 20
-0.200000
 30
0.530410
 70
 32
 40
0.000000
  0
VERTEX
  8
0
 10
1.478000
 20
-0.200000
 30
0.539560
 70
 32
 40
0.000000
  0
VERTEX
  8
0
 10
1.292840
 20
-0.200000
 30
0.545670
 70
 32
 40
0.000000
  0
VERTEX
  8
0
 10
1.284200
 20
-0.200000
 30
0.545730
 70
 32
 40
0.000000
  0
VERTEX
  8
0
 10
1.125070
 20
-0.200000
 30
0.541090
 70
 32
 40
0.000000
  0
VERTEX
  8
0
 10
1.000980
 20
-0.200000
 30
0.525370
 70
 32
 40
0.000000
  0
VERTEX
  8
0
 10
0.964870
 20
-0.200000
 30
0.517230
 70
 32
 40
0.000000
  0
VERTEX
  8
0
 10
0.908350
 20
-0.200000
 30
0.499060
 70
 32
 40
0.000000
  0
VERTEX
  8
0
 10
0.842090
 20
-0.200000
 30
0.462910
 70
 32
 40
0.000000
  0
VERTEX
  8
0
 10
0.797910
 20
-0.200000
 30
0.417730
 70
 32
 40
0.000000
  0
VERTEX
  8
0
 10
0.772650
 20
-0.200000
 30
0.364290
 70
 32
 40
0.000000
  0
VERTEX
  8
0
 10
0.764430
 20
-0.200000
 30
0.303300
 70
 32
 40
0.000000
  0
SEQEND
  8
0
  0
POLYLINE
  8
0
 62
9
  6
CONTINUOUS
 66
  1
 70
  8
  0
VERTEX
  8
0
 10
2.566280
 20
0.300000
 30
0.441000
 70
 32
 40
0.000000
  0
VERTEX
  8
0
 10
2.339390
 20
0.300000
 30
0.460030
 70
 32
 40
0.000000
  0
VERTEX
  8
0
 10
2.264220
 20
0.300000
 30
0.465620
 70
 32
 40
0.000000
  0
VERTEX
  8
0
 10
2.124230
 20
0.300000
 30
0.474640
 70
 32
 40
0.000000
  0
VERTEX
  8
0
 10
1.938010
 20
0.300000
 30
0.482620
 70
 32
 40
0.000000
  0
VERTEX
  8
0
 10
1.926140
 20
0.300000
 30
0.482920
 70
 32
 40
0.000000
  0
VERTEX
  8
0
 10
1.751680
 20
0.300000
 30
0.483120
 70
 32
 40
0.000000
  0
VERTEX
  8
0
 10
1.610780
 20
0.300000
 30
0.474630
 70
 32
 40
0.000000
  0
VERTEX
  8
0
 10
1.605480
 20
0.300000
 30
0.474080
 70
 32
 40
0.000000
  0
VERTEX
  8
0
 10
1.489020
 20
0.300000
 30
0.455400
 70
 32
 40
0.000000
  0
VERTEX
  8
0
 10
1.401520
 20
0.300000
 30
0.427260
 70
 32
 40
0.000000
  0
VERTEX
  8
0
 10
1.341120
 20
0.300000
 30
0.390270
 70
 32
 40
0.000000
  0
VERTEX
  8
0
 10
1.305830
 20
0.300000
 30
0.345230
 70
 32
 40
0.000000
  0
VERTEX
  8
0
 10
1.294230
 20
0.300000
 30
0.293110
 70
 32
 40
0.000000
  0
SEQEND
  8
0
  0
POLYLINE
  8
0
 62
9
  6
CONTINUOUS
 66
  1
 70
  8
  0
VERTEX
  8
0
 10
2.566280
 20
-0.300000
 30
0.441000
 70
 32
 40
0.000000
  0
VERTEX
  8
0
 10
2.339390
 20
-0.300000
 30
0.460030
 70
 32
 40
0.000000
  0
VERTEX
  8
0
 10
2.264220
 20
-0.300000
 30
0.465620
 70
 32
 40
0.000000
  0
VERTEX
  8
0
 10
2.124230
 20
-0.300000
 30
0.474640
 70
 32
 40
0.000000
  0
VERTEX
  8
0
 10
1.938010
 20
-0.300000
 30
0.482620
 70
 32
 40
0.000000
  0
VERTEX
  8
0
 10
1.926140
 20
-0.300000
 30
0.482920
 70
 32
 40
0.000000
  0
VERTEX
  8
0
 10
1.751680
 20
-0.300000
 30
0.483120
 70
 32
 40
0.000000
  0
VERTEX
  8
0
 10
1.610780
 20
-0.300000
 30
0.474630
 70
 32
 40
0.000000
  0
VERTEX
  8
0
 10
1.605480
 20
-0.300000
 30
0.474080
 70
 32
 40
0.000000
  0
VERTEX
  8
0
 10
1.489020
 20
-0.300000
 30
0.455400
 70
 32
 40
0.000000
  0
VERTEX
  8
0
 10
1.401520
 20
-0.300000
 30
0.427260
 70
 32
 40
0.000000
  0
VERTEX
  8
0
 10
1.341120
 20
-0.300000
 30
0.390270
 70
 32
 40
0.000000
  0
VERTEX
  8
0
 10
1.305830
 20
-0.300000
 30
0.345230
 70
 32
 40
0.000000
  0
VERTEX
  8
0
 10
1.294230
 20
-0.300000
 30
0.293110
 70
 32
 40
0.000000
  0
SEQEND
  8
0
  0
POLYLINE
  8
0
 62
9
  6
CONTINUOUS
 66
  1
 70
  8
  0
VERTEX
  8
0
 10
6.232350
 20
0.300000
 30
0.268140
 70
 32
 40
0.000000
  0
VERTEX
  8
0
 10
6.309460
 20
0.300000
 30
0.265930
 70
 32
 40
0.000000
  0
VERTEX
  8
0
 10
6.375460
 20
0.300000
 30
0.262560
 70
 32
 40
0.000000
  0
VERTEX
  8
0
 10
6.431570
 20
0.300000
 30
0.257990
 70
 32
 40
0.000000
  0
VERTEX
  8
0
 10
6.478690
 20
0.300000
 30
0.252200
 70
 32
 40
0.000000
  0
VERTEX
  8
0
 10
6.500000
 20
0.300000
 30
0.248680
 70
 32
 40
0.000000
  0
SEQEND
  8
0
  0
POLYLINE
  8
0
 62
9
  6
CONTINUOUS
 66
  1
 70
  8
  0
VERTEX
  8
0
 10
6.232350
 20
-0.300000
 30
0.268140
 70
 32
 40
0.000000
  0
VERTEX
  8
0
 10
6.309460
 20
-0.300000
 30
0.265930
 70
 32
 40
0.000000
  0
VERTEX
  8
0
 10
6.375460
 20
-0.300000
 30
0.262560
 70
 32
 40
0.000000
  0
VERTEX
  8
0
 10
6.431570
 20
-0.300000
 30
0.257990
 70
 32
 40
0.000000
  0
VERTEX
  8
0
 10
6.478690
 20
-0.300000
 30
0.252200
 70
 32
 40
0.000000
  0
VERTEX
  8
0
 10
6.500000
 20
-0.300000
 30
0.248680
 70
 32
 40
0.000000
  0
SEQEND
  8
0
  0
POLYLINE
  8
0
 62
9
  6
CONTINUOUS
 66
  1
 70
  8
  0
VERTEX
  8
0
 10
3.377510
 20
0.400000
 30
0.377670
 70
 32
 40
0.000000
  0
VERTEX
  8
0
 10
3.237850
 20
0.400000
 30
0.386940
 70
 32
 40
0.000000
  0
VERTEX
  8
0
 10
3.120930
 20
0.400000
 30
0.394400
 70
 32
 40
0.000000
  0
VERTEX
  8
0
 10
2.911300
 20
0.400000
 30
0.406540
 70
 32
 40
0.000000
  0
VERTEX
  8
0
 10
2.885430
 20
0.400000
 30
0.407880
 70
 32
 40
0.000000
  0
VERTEX
  8
0
 10
2.671040
 20
0.400000
 30
0.416930
 70
 32
 40
0.000000
  0
VERTEX
  8
0
 10
2.584560
 20
0.400000
 30
0.419150
 70
 32
 40
0.000000
  0
VERTEX
  8
0
 10
2.480640
 20
0.400000
 30
0.420190
 70
 32
 40
0.000000
  0
VERTEX
  8
0
 10
2.316370
 20
0.400000
 30
0.416440
 70
 32
 40
0.000000
  0
VERTEX
  8
0
 10
2.257610
 20
0.400000
 30
0.412680
 70
 32
 40
0.000000
  0
VERTEX
  8
0
 10
2.180980
 20
0.400000
 30
0.404820
 70
 32
 40
0.000000
  0
VERTEX
  8
0
 10
2.075570
 20
0.400000
 30
0.385000
 70
 32
 40
0.000000
  0
VERTEX
  8
0
 10
2.000760
 20
0.400000
 30
0.357190
 70
 32
 40
0.000000
  0
VERTEX
  8
0
 10
1.956220
 20
0.400000
 30
0.322070
 70
 32
 40
0.000000
  0
VERTEX
  8
0
 10
1.941450
 20
0.400000
 30
0.280660
 70
 32
 40
0.000000
  0
SEQEND
  8
0
  0
POLYLINE
  8
0
 62
9
  6
CONTINUOUS
 66
  1
 70
  8
  0
VERTEX
  8
0
 10
3.377510
 20
-0.400000
 30
0.377670
 70
 32
 40
0.000000
  0
VERTEX
  8
0
 10
3.237850
 20
-0.400000
 30
0.386940
 70
 32
 40
0.000000
  0
VERTEX
  8
0
 10
3.120930
 20
-0.400000
 30
0.394400
 70
 32
 40
0.000000
  0
VERTEX
  8
0
 10
2.911300
 20
-0.400000
 30
0.406540
 70
 32
 40
0.000000
  0
VERTEX
  8
0
 10
2.885430
 20
-0.400000
 30
0.407880
 70
 32
 40
0.000000
  0
VERTEX
  8
0
 10
2.671040
 20
-0.400000
 30
0.416930
 70
 32
 40
0.000000
  0
VERTEX
  8
0
 10
2.584560
 20
-0.400000
 30
0.419150
 70
 32
 40
0.000000
  0
VERTEX
  8
0
 10
2.480640
 20
-0.400000
 30
0.420190
 70
 32
 40
0.000000
  0
VERTEX
  8
0
 10
2.316370
 20
-0.400000
 30
0.416440
 70
 32
 40
0.000000
  0
VERTEX
  8
0
 10
2.257610
 20
-0.400000
 30
0.412680
 70
 32
 40
0.000000
  0
VERTEX
  8
0
 10
2.180980
 20
-0.400000
 30
0.404820
 70
 32
 40
0.000000
  0
VERTEX
  8
0
 10
2.075570
 20
-0.400000
 30
0.385000
 70
 32
 40
0.000000
  0
VERTEX
  8
0
 10
2.000760
 20
-0.400000
 30
0.357190
 70
 32
 40
0.000000
  0
VERTEX
  8
0
 10
1.956220
 20
-0.400000
 30
0.322070
 70
 32
 40
0.000000
  0
VERTEX
  8
0
 10
1.941450
 20
-0.400000
 30
0.280660
 70
 32
 40
0.000000
  0
SEQEND
  8
0
  0
POLYLINE
  8
0
 62
9
  6
CONTINUOUS
 66
  1
 70
  8
  0
VERTEX
  8
0
 10
5.483940
 20
0.400000
 30
0.285080
 70
 32
 40
0.000000
  0
VERTEX
  8
0
 10
5.527300
 20
0.400000
 30
0.283900
 70
 32
 40
0.000000
  0
VERTEX
  8
0
 10
5.616020
 20
0.400000
 30
0.281010
 70
 32
 40
0.000000
  0
VERTEX
  8
0
 10
5.721390
 20
0.400000
 30
0.276330
 70
 32
 40
0.000000
  0
VERTEX
  8
0
 10
5.806990
 20
0.400000
 30
0.270820
 70
 32
 40
0.000000
  0
VERTEX
  8
0
 10
5.852610
 20
0.400000
 30
0.266850
 70
 32
 40
0.000000
  0
VERTEX
  8
0
 10
5.876750
 20
0.400000
 30
0.264320
 70
 32
 40
0.000000
  0
VERTEX
  8
0
 10
5.933030
 20
0.400000
 30
0.256770
 70
 32
 40
0.000000
  0
VERTEX
  8
0
 10
5.977400
 20
0.400000
 30
0.248090
 70
 32
 40
0.000000
  0
VERTEX
  8
0
 10
6.010960
 20
0.400000
 30
0.238260
 70
 32
 40
0.000000
  0
VERTEX
  8
0
 10
6.034470
 20
0.400000
 30
0.227250
 70
 32
 40
0.000000
  0
VERTEX
  8
0
 10
6.048390
 20
0.400000
 30
0.215030
 70
 32
 40
0.000000
  0
VERTEX
  8
0
 10
6.053000
 20
0.400000
 30
0.201600
 70
 32
 40
0.000000
  0
SEQEND
  8
0
  0
POLYLINE
  8
0
 62
9
  6
CONTINUOUS
 66
  1
 70
  8
  0
VERTEX
  8
0
 10
5.483940
 20
-0.400000
 30
0.285080
 70
 32
 40
0.000000
  0
VERTEX
  8
0
 10
5.527300
 20
-0.400000
 30
0.283900
 70
 32
 40
0.000000
  0
VERTEX
  8
0
 10
5.616020
 20
-0.400000
 30
0.281010
 70
 32
 40
0.000000
  0
VERTEX
  8
0
 10
5.721390
 20
-0.400000
 30
0.276330
 70
 32
 40
0.000000
  0
VERTEX
  8
0
 10
5.806990
 20
-0.400000
 30
0.270820
 70
 32
 40
0.000000
  0
VERTEX
  8
0
 10
5.852610
 20
-0.400000
 30
0.266850
 70
 32
 40
0.000000
  0
VERTEX
  8
0
 10
5.876750
 20
-0.400000
 30
0.264320
 70
 32
 40
0.000000
  0
VERTEX
  8
0
 10
5.933030
 20
-0.400000
 30
0.256770
 70
 32
 40
0.000000
  0
VERTEX
  8
0
 10
5.977400
 20
-0.400000
 30
0.248090
 70
 32
 40
0.000000
  0
VERTEX
  8
0
 10
6.010960
 20
-0.400000
 30
0.238260
 70
 32
 40
0.000000
  0
VERTEX
  8
0
 10
6.034470
 20
-0.400000
 30
0.227250
 70
 32
 40
0.000000
  0
VERTEX
  8
0
 10
6.048390
 20
-0.400000
 30
0.215030
 70
 32
 40
0.000000
  0
VERTEX
  8
0
 10
6.053000
 20
-0.400000
 30
0.201600
 70
 32
 40
0.000000
  0
SEQEND
  8
0
  0
POLYLINE
  8
0
 62
9
  6
CONTINUOUS
 66
  1
 70
  8
  0
VERTEX
  8
0
 10
5.187360
 20
0.500000
 30
0.218240
 70
 32
 40
0.000000
  0
VERTEX
  8
0
 10
5.177750
 20
0.500000
 30
0.232720
 70
 32
 40
0.000000
  0
VERTEX
  8
0
 10
5.148210
 20
0.500000
 30
0.246200
 70
 32
 40
0.000000
  0
VERTEX
  8
0
 10
5.096340
 20
0.500000
 30
0.258830
 70
 32
 40
0.000000
  0
VERTEX
  8
0
 10
5.016760
 20
0.500000
 30
0.270900
 70
 32
 40
0.000000
  0
VERTEX
  8
0
 10
4.897090
 20
0.500000
 30
0.282940
 70
 32
 40
0.000000
  0
VERTEX
  8
0
 10
4.873190
 20
0.500000
 30
0.284890
 70
 32
 40
0.000000
  0
VERTEX
  8
0
 10
4.699210
 20
0.500000
 30
0.296600
 70
 32
 40
0.000000
  0
VERTEX
  8
0
 10
4.545510
 20
0.500000
 30
0.304880
 70
 32
 40
0.000000
  0
VERTEX
  8
0
 10
4.217710
 20
0.500000
 30
0.319790
 70
 32
 40
0.000000
  0
VERTEX
  8
0
 10
3.889950
 20
0.500000
 30
0.332310
 70
 32
 40
0.000000
  0
VERTEX
  8
0
 10
3.767170
 20
0.500000
 30
0.336150
 70
 32
 40
0.000000
  0
VERTEX
  8
0
 10
3.562340
 20
0.500000
 30
0.340750
 70
 32
 40
0.000000
  0
VERTEX
  8
0
 10
3.465680
 20
0.500000
 30
0.341720
 70
 32
 40
0.000000
  0
VERTEX
  8
0
 10
3.253040
 20
0.500000
 30
0.339150
 70
 32
 40
0.000000
  0
VERTEX
  8
0
 10
3.234960
 20
0.500000
 30
0.338490
 70
 32
 40
0.000000
  0
VERTEX
  8
0
 10
3.096890
 20
0.500000
 30
0.329400
 70
 32
 40
0.000000
  0
VERTEX
  8
0
 10
2.988530
 20
0.500000
 30
0.312830
 70
 32
 40
0.000000
  0
VERTEX
  8
0
 10
2.924510
 20
0.500000
 30
0.290080
 70
 32
 40
0.000000
  0
VERTEX
  8
0
 10
2.908490
 20
0.500000
 30
0.276540
 70
 32
 40
0.000000
  0
VERTEX
  8
0
 10
2.903310
 20
0.500000
 30
0.262170
 70
 32
 40
0.000000
  0
SEQEND
  8
0
  0
POLYLINE
  8
0
 62
9
  6
CONTINUOUS
 66
  1
 70
  8
  0
VERTEX
  8
0
 10
5.187360
 20
-0.500000
 30
0.218240
 70
 32
 40
0.000000
  0
VERTEX
  8
0
 10
5.177750
 20
-0.500000
 30
0.232720
 70
 32
 40
0.000000
  0
VERTEX
  8
0
 10
5.148210
 20
-0.500000
 30
0.246200
 70
 32
 40
0.000000
  0
VERTEX
  8
0
 10
5.096340
 20
-0.500000
 30
0.258830
 70
 32
 40
0.000000
  0
VERTEX
  8
0
 10
5.016760
 20
-0.500000
 30
0.270900
 70
 32
 40
0.000000
  0
VERTEX
  8
0
 10
4.897090
 20
-0.500000
 30
0.282940
 70
 32
 40
0.000000
  0
VERTEX
  8
0
 10
4.873190
 20
-0.500000
 30
0.284890
 70
 32
 40
0.000000
  0
VERTEX
  8
0
 10
4.699210
 20
-0.500000
 30
0.296600
 70
 32
 40
0.000000
  0
VERTEX
  8
0
 10
4.545510
 20
-0.500000
 30
0.304880
 70
 32
 40
0.000000
  0
VERTEX
  8
0
 10
4.217710
 20
-0.500000
 30
0.319790
 70
 32
 40
0.000000
  0
VERTEX
  8
0
 10
3.889950
 20
-0.500000
 30
0.332310
 70
 32
 40
0.000000
  0
VERTEX
  8
0
 10
3.767170
 20
-0.500000
 30
0.336150
 70
 32
 40
0.000000
  0
VERTEX
  8
0
 10
3.562340
 20
-0.500000
 30
0.340750
 70
 32
 40
0.000000
  0
VERTEX
  8
0
 10
3.465680
 20
-0.500000
 30
0.341720
 70
 32
 40
0.000000
  0
VERTEX
  8
0
 10
3.253040
 20
-0.500000
 30
0.339150
 70
 32
 40
0.000000
  0
VERTEX
  8
0
 10
3.234960
 20
-0.500000
 30
0.338490
 70
 32
 40
0.000000
  0
VERTEX
  8
0
 10
3.096890
 20
-0.500000
 30
0.329400
 70
 32
 40
0.000000
  0
VERTEX
  8
0
 10
2.988530
 20
-0.500000
 30
0.312830
 70
 32
 40
0.000000
  0
VERTEX
  8
0
 10
2.924510
 20
-0.500000
 30
0.290080
 70
 32
 40
0.000000
  0
VERTEX
  8
0
 10
2.908490
 20
-0.500000
 30
0.276540
 70
 32
 40
0.000000
  0
VERTEX
  8
0
 10
2.903310
 20
-0.500000
 30
0.262170
 70
 32
 40
0.000000
  0
SEQEND
  8
0
  0
POLYLINE
  8
0
 62
9
  6
CONTINUOUS
 66
  1
 70
  8
  0
VERTEX
  8
0
 10
1.300000
 20
0.100000
 30
0.569000
 70
 32
 40
0.000000
  0
VERTEX
  8
0
 10
1.300770
 20
0.100000
 30
0.568940
 70
 32
 40
0.000000
  0
VERTEX
  8
0
 10
1.376510
 20
0.100000
 30
0.562840
 70
 32
 40
0.000000
  0
VERTEX
  8
0
 10
1.469460
 20
0.100000
 30
0.555010
 70
 32
 40
0.000000
  0
VERTEX
  8
0
 10
1.585040
 20
0.100000
 30
0.544850
 70
 32
 40
0.000000
  0
VERTEX
  8
0
 10
1.622410
 20
0.100000
 30
0.541480
 70
 32
 40
0.000000
  0
VERTEX
  8
0
 10
1.734210
 20
0.100000
 30
0.531230
 70
 32
 40
0.000000
  0
VERTEX
  8
0
 10
1.938740
 20
0.100000
 30
0.512090
 70
 32
 40
0.000000
  0
VERTEX
  8
0
 10
1.945820
 20
0.100000
 30
0.511420
 70
 32
 40
0.000000
  0
VERTEX
  8
0
 10
2.244980
 20
0.100000
 30
0.483330
 70
 32
 40
0.000000
  0
VERTEX
  8
0
 10
2.269860
 20
0.100000
 30
0.481030
 70
 32
 40
0.000000
  0
VERTEX
  8
0
 10
2.594270
 20
0.100000
 30
0.451940
 70
 32
 40
0.000000
  0
VERTEX
  8
0
 10
2.801040
 20
0.100000
 30
0.434680
 70
 32
 40
0.000000
  0
VERTEX
  8
0
 10
2.919020
 20
0.100000
 30
0.425340
 70
 32
 40
0.000000
  0
VERTEX
  8
0
 10
3.244050
 20
0.100000
 30
0.401500
 70
 32
 40
0.000000
  0
VERTEX
  8
0
 10
3.569290
 20
0.100000
 30
0.380340
 70
 32
 40
0.000000
  0
VERTEX
  8
0
 10
3.894680
 20
0.100000
 30
0.361720
 70
 32
 40
0.000000
  0
VERTEX
  8
0
 10
4.220210
 20
0.100000
 30
0.345460
 70
 32
 40
0.000000
  0
VERTEX
  8
0
 10
4.545820
 20
0.100000
 30
0.331320
 70
 32
 40
0.000000
  0
VERTEX
  8
0
 10
4.871520
 20
0.100000
 30
0.319040
 70
 32
 40
0.000000
  0
VERTEX
  8
0
 10
5.197280
 20
0.100000
 30
0.308370
 70
 32
 40
0.000000
  0
VERTEX
  8
0
 10
5.523080
 20
0.100000
 30
0.298990
 70
 32
 40
0.000000
  0
VERTEX
  8
0
 10
5.848870
 20
0.100000
 30
0.290600
 70
 32
 40
0.000000
  0
VERTEX
  8
0
 10
6.021540
 20
0.100000
 30
0.286420
 70
 32
 40
0.000000
  0
VERTEX
  8
0
 10
6.174580
 20
0.100000
 30
0.282800
 70
 32
 40
0.000000
  0
VERTEX
  8
0
 10
6.500000
 20
0.100000
 30
0.275030
 70
 32
 40
0.000000
  0
SEQEND
  8
0
  0
POLYLINE
  8
0
 62
9
  6
CONTINUOUS
 66
  1
 70
  8
  0
VERTEX
  8
0
 10
1.300000
 20
-0.100000
 30
0.569000
 70
 32
 40
0.000000
  0
VERTEX
  8
0
 10
1.300770
 20
-0.100000
 30
0.568940
 70
 32
 40
0.000000
  0
VERTEX
  8
0
 10
1.376510
 20
-0.100000
 30
0.562840
 70
 32
 40
0.000000
  0
VERTEX
  8
0
 10
1.469460
 20
-0.100000
 30
0.555010
 70
 32
 40
0.000000
  0
VERTEX
  8
0
 10
1.585040
 20
-0.100000
 30
0.544850
 70
 32
 40
0.000000
  0
VERTEX
  8
0
 10
1.622410
 20
-0.100000
 30
0.541480
 70
 32
 40
0.000000
  0
VERTEX
  8
0
 10
1.734210
 20
-0.100000
 30
0.531230
 70
 32
 40
0.000000
  0
VERTEX
  8
0
 10
1.938740
 20
-0.100000
 30
0.512090
 70
 32
 40
0.000000
  0
VERTEX
  8
0
 10
1.945820
 20
-0.100000
 30
0.511420
 70
 32
 40
0.000000
  0
VERTEX
  8
0
 10
2.244980
 20
-0.100000
 30
0.483330
 70
 32
 40
0.000000
  0
VERTEX
  8
0
 10
2.269860
 20
-0.100000
 30
0.481030
 70
 32
 40
0.000000
  0
VERTEX
  8
0
 10
2.594270
 20
-0.100000
 30
0.451940
 70
 32
 40
0.000000
  0
VERTEX
  8
0
 10
2.801040
 20
-0.100000
 30
0.434680
 70
 32
 40
0.000000
  0
VERTEX
  8
0
 10
2.919020
 20
-0.100000
 30
0.425340
 70
 32
 40
0.000000
  0
VERTEX
  8
0
 10
3.244050
 20
-0.100000
 30
0.401500
 70
 32
 40
0.000000
  0
VERTEX
  8
0
 10
3.569290
 20
-0.100000
 30
0.380340
 70
 32
 40
0.000000
  0
VERTEX
  8
0
 10
3.894680
 20
-0.100000
 30
0.361720
 70
 32
 40
0.000000
  0
VERTEX
  8
0
 10
4.220210
 20
-0.100000
 30
0.345460
 70
 32
 40
0.000000
  0
VERTEX
  8
0
 10
4.545820
 20
-0.100000
 30
0.331320
 70
 32
 40
0.000000
  0
VERTEX
  8
0
 10
4.871520
 20
-0.100000
 30
0.319040
 70
 32
 40
0.000000
  0
VERTEX
  8
0
 10
5.197280
 20
-0.100000
 30
0.308370
 70
 32
 40
0.000000
  0
VERTEX
  8
0
 10
5.523080
 20
-0.100000
 30
0.298990
 70
 32
 40
0.000000
  0
VERTEX
  8
0
 10
5.848870
 20
-0.100000
 30
0.290600
 70
 32
 40
0.000000
  0
VERTEX
  8
0
 10
6.021540
 20
-0.100000
 30
0.286420
 70
 32
 40
0.000000
  0
VERTEX
  8
0
 10
6.174580
 20
-0.100000
 30
0.282800
 70
 32
 40
0.000000
  0
VERTEX
  8
0
 10
6.500000
 20
-0.100000
 30
0.275030
 70
 32
 40
0.000000
  0
SEQEND
  8
0
  0
POLYLINE
  8
0
 62
9
  6
CONTINUOUS
 66
  1
 70
  8
  0
VERTEX
  8
0
 10
1.939120
 20
0.200000
 30
0.501580
 70
 32
 40
0.000000
  0
VERTEX
  8
0
 10
1.944770
 20
0.200000
 30
0.501090
 70
 32
 40
0.000000
  0
VERTEX
  8
0
 10
2.074300
 20
0.200000
 30
0.489940
 70
 32
 40
0.000000
  0
VERTEX
  8
0
 10
2.245110
 20
0.200000
 30
0.475100
 70
 32
 40
0.000000
  0
VERTEX
  8
0
 10
2.268100
 20
0.200000
 30
0.473100
 70
 32
 40
0.000000
  0
VERTEX
  8
0
 10
2.471710
 20
0.200000
 30
0.455620
 70
 32
 40
0.000000
  0
VERTEX
  8
0
 10
2.592450
 20
0.200000
 30
0.445510
 70
 32
 40
0.000000
  0
VERTEX
  8
0
 10
2.800990
 20
0.200000
 30
0.428740
 70
 32
 40
0.000000
  0
VERTEX
  8
0
 10
2.917400
 20
0.200000
 30
0.419800
 70
 32
 40
0.000000
  0
VERTEX
  8
0
 10
3.242700
 20
0.200000
 30
0.396490
 70
 32
 40
0.000000
  0
VERTEX
  8
0
 10
3.378030
 20
0.200000
 30
0.387520
 70
 32
 40
0.000000
  0
VERTEX
  8
0
 10
3.568230
 20
0.200000
 30
0.375640
 70
 32
 40
0.000000
  0
VERTEX
  8
0
 10
3.893940
 20
0.200000
 30
0.357190
 70
 32
 40
0.000000
  0
VERTEX
  8
0
 10
4.219780
 20
0.200000
 30
0.341010
 70
 32
 40
0.000000
  0
VERTEX
  8
0
 10
4.545730
 20
0.200000
 30
0.326870
 70
 32
 40
0.000000
  0
VERTEX
  8
0
 10
4.871760
 20
0.200000
 30
0.314510
 70
 32
 40
0.000000
  0
VERTEX
  8
0
 10
5.197840
 20
0.200000
 30
0.303630
 70
 32
 40
0.000000
  0
VERTEX
  8
0
 10
5.482880
 20
0.200000
 30
0.295100
 70
 32
 40
0.000000
  0
VERTEX
  8
0
 10
5.523920
 20
0.200000
 30
0.293930
 70
 32
 40
0.000000
  0
VERTEX
  8
0
 10
5.849910
 20
0.200000
 30
0.285000
 70
 32
 40
0.000000
  0
VERTEX
  8
0
 10
6.022120
 20
0.200000
 30
0.280430
 70
 32
 40
0.000000
  0
VERTEX
  8
0
 10
6.175550
 20
0.200000
 30
0.276330
 70
 32
 40
0.000000
  0
VERTEX
  8
0
 10
6.313870
 20
0.200000
 30
0.272530
 70
 32
 40
0.000000
  0
VERTEX
  8
0
 10
6.500000
 20
0.200000
 30
0.267060
 70
 32
 40
0.000000
  0
SEQEND
  8
0
  0
POLYLINE
  8
0
 62
9
  6
CONTINUOUS
 66
  1
 70
  8
  0
VERTEX
  8
0
 10
1.939120
 20
-0.200000
 30
0.501580
 70
 32
 40
0.000000
  0
VERTEX
  8
0
 10
1.944770
 20
-0.200000
 30
0.501090
 70
 32
 40
0.000000
  0
VERTEX
  8
0
 10
2.074300
 20
-0.200000
 30
0.489940
 70
 32
 40
0.000000
  0
VERTEX
  8
0
 10
2.245110
 20
-0.200000
 30
0.475100
 70
 32
 40
0.000000
  0
VERTEX
  8
0
 10
2.268100
 20
-0.200000
 30
0.473100
 70
 32
 40
0.000000
  0
VERTEX
  8
0
 10
2.471710
 20
-0.200000
 30
0.455620
 70
 32
 40
0.000000
  0
VERTEX
  8
0
 10
2.592450
 20
-0.200000
 30
0.445510
 70
 32
 40
0.000000
  0
VERTEX
  8
0
 10
2.800990
 20
-0.200000
 30
0.428740
 70
 32
 40
0.000000
  0
VERTEX
  8
0
 10
2.917400
 20
-0.200000
 30
0.419800
 70
 32
 40
0.000000
  0
VERTEX
  8
0
 10
3.242700
 20
-0.200000
 30
0.396490
 70
 32
 40
0.000000
  0
VERTEX
  8
0
 10
3.378030
 20
-0.200000
 30
0.387520
 70
 32
 40
0.000000
  0
VERTEX
  8
0
 10
3.568230
 20
-0.200000
 30
0.375640
 70
 32
 40
0.000000
  0
VERTEX
  8
0
 10
3.893940
 20
-0.200000
 30
0.357190
 70
 32
 40
0.000000
  0
VERTEX
  8
0
 10
4.219780
 20
-0.200000
 30
0.341010
 70
 32
 40
0.000000
  0
VERTEX
  8
0
 10
4.545730
 20
-0.200000
 30
0.326870
 70
 32
 40
0.000000
  0
VERTEX
  8
0
 10
4.871760
 20
-0.200000
 30
0.314510
 70
 32
 40
0.000000
  0
VERTEX
  8
0
 10
5.197840
 20
-0.200000
 30
0.303630
 70
 32
 40
0.000000
  0
VERTEX
  8
0
 10
5.482880
 20
-0.200000
 30
0.295100
 70
 32
 40
0.000000
  0
VERTEX
  8
0
 10
5.523920
 20
-0.200000
 30
0.293930
 70
 32
 40
0.000000
  0
VERTEX
  8
0
 10
5.849910
 20
-0.200000
 30
0.285000
 70
 32
 40
0.000000
  0
VERTEX
  8
0
 10
6.022120
 20
-0.200000
 30
0.280430
 70
 32
 40
0.000000
  0
VERTEX
  8
0
 10
6.175550
 20
-0.200000
 30
0.276330
 70
 32
 40
0.000000
  0
VERTEX
  8
0
 10
6.313870
 20
-0.200000
 30
0.272530
 70
 32
 40
0.000000
  0
VERTEX
  8
0
 10
6.500000
 20
-0.200000
 30
0.267060
 70
 32
 40
0.000000
  0
SEQEND
  8
0
  0
POLYLINE
  8
0
 62
9
  6
CONTINUOUS
 66
  1
 70
  8
  0
VERTEX
  8
0
 10
2.566280
 20
0.300000
 30
0.441000
 70
 32
 40
0.000000
  0
VERTEX
  8
0
 10
2.589670
 20
0.300000
 30
0.439140
 70
 32
 40
0.000000
  0
VERTEX
  8
0
 10
2.800900
 20
0.300000
 30
0.422810
 70
 32
 40
0.000000
  0
VERTEX
  8
0
 10
2.914870
 20
0.300000
 30
0.414320
 70
 32
 40
0.000000
  0
VERTEX
  8
0
 10
3.136780
 20
0.300000
 30
0.398550
 70
 32
 40
0.000000
  0
VERTEX
  8
0
 10
3.240600
 20
0.300000
 30
0.391520
 70
 32
 40
0.000000
  0
VERTEX
  8
0
 10
3.566600
 20
0.300000
 30
0.370970
 70
 32
 40
0.000000
  0
VERTEX
  8
0
 10
3.735440
 20
0.300000
 30
0.361220
 70
 32
 40
0.000000
  0
VERTEX
  8
0
 10
3.892800
 20
0.300000
 30
0.352680
 70
 32
 40
0.000000
  0
VERTEX
  8
0
 10
4.219170
 20
0.300000
 30
0.336570
 70
 32
 40
0.000000
  0
VERTEX
  8
0
 10
4.545650
 20
0.300000
 30
0.322420
 70
 32
 40
0.000000
  0
VERTEX
  8
0
 10
4.872220
 20
0.300000
 30
0.309960
 70
 32
 40
0.000000
  0
VERTEX
  8
0
 10
5.133060
 20
0.300000
 30
0.301020
 70
 32
 40
0.000000
  0
VERTEX
  8
0
 10
5.198820
 20
0.300000
 30
0.298890
 70
 32
 40
0.000000
  0
VERTEX
  8
0
 10
5.525370
 20
0.300000
 30
0.288840
 70
 32
 40
0.000000
  0
VERTEX
  8
0
 10
5.713050
 20
0.300000
 30
0.283360
 70
 32
 40
0.000000
  0
VERTEX
  8
0
 10
5.851680
 20
0.300000
 30
0.279380
 70
 32
 40
0.000000
  0
VERTEX
  8
0
 10
6.023100
 20
0.300000
 30
0.274420
 70
 32
 40
0.000000
  0
VERTEX
  8
0
 10
6.177180
 20
0.300000
 30
0.269840
 70
 32
 40
0.000000
  0
VERTEX
  8
0
 10
6.232350
 20
0.300000
 30
0.268140
 70
 32
 40
0.000000
  0
SEQEND
  8
0
  0
POLYLINE
  8
0
 62
9
  6
CONTINUOUS
 66
  1
 70
  8
  0
VERTEX
  8
0
 10
2.566280
 20
-0.300000
 30
0.441000
 70
 32
 40
0.000000
  0
VERTEX
  8
0
 10
2.589670
 20
-0.300000
 30
0.439140
 70
 32
 40
0.000000
  0
VERTEX
  8
0
 10
2.800900
 20
-0.300000
 30
0.422810
 70
 32
 40
0.000000
  0
VERTEX
  8
0
 10
2.914870
 20
-0.300000
 30
0.414320
 70
 32
 40
0.000000
  0
VERTEX
  8
0
 10
3.136780
 20
-0.300000
 30
0.398550
 70
 32
 40
0.000000
  0
VERTEX
  8
0
 10
3.240600
 20
-0.300000
 30
0.391520
 70
 32
 40
0.000000
  0
VERTEX
  8
0
 10
3.566600
 20
-0.300000
 30
0.370970
 70
 32
 40
0.000000
  0
VERTEX
  8
0
 10
3.735440
 20
-0.300000
 30
0.361220
 70
 32
 40
0.000000
  0
VERTEX
  8
0
 10
3.892800
 20
-0.300000
 30
0.352680
 70
 32
 40
0.000000
  0
VERTEX
  8
0
 10
4.219170
 20
-0.300000
 30
0.336570
 70
 32
 40
0.000000
  0
VERTEX
  8
0
 10
4.545650
 20
-0.300000
 30
0.322420
 70
 32
 40
0.000000
  0
VERTEX
  8
0
 10
4.872220
 20
-0.300000
 30
0.309960
 70
 32
 40
0.000000
  0
VERTEX
  8
0
 10
5.133060
 20
-0.300000
 30
0.301020
 70
 32
 40
0.000000
  0
VERTEX
  8
0
 10
5.198820
 20
-0.300000
 30
0.298890
 70
 32
 40
0.000000
  0
VERTEX
  8
0
 10
5.525370
 20
-0.300000
 30
0.288840
 70
 32
 40
0.000000
  0
VERTEX
  8
0
 10
5.713050
 20
-0.300000
 30
0.283360
 70
 32
 40
0.000000
  0
VERTEX
  8
0
 10
5.851680
 20
-0.300000
 30
0.279380
 70
 32
 40
0.000000
  0
VERTEX
  8
0
 10
6.023100
 20
-0.300000
 30
0.274420
 70
 32
 40
0.000000
  0
VERTEX
  8
0
 10
6.177180
 20
-0.300000
 30
0.269840
 70
 32
 40
0.000000
  0
VERTEX
  8
0
 10
6.232350
 20
-0.300000
 30
0.268140
 70
 32
 40
0.000000
  0
SEQEND
  8
0
  0
POLYLINE
  8
0
 62
9
  6
CONTINUOUS
 66
  1
 70
  8
  0
VERTEX
  8
0
 10
3.377510
 20
0.400000
 30
0.377670
 70
 32
 40
0.000000
  0
VERTEX
  8
0
 10
3.564400
 20
0.400000
 30
0.366330
 70
 32
 40
0.000000
  0
VERTEX
  8
0
 10
3.891270
 20
0.400000
 30
0.348190
 70
 32
 40
0.000000
  0
VERTEX
  8
0
 10
4.051170
 20
0.400000
 30
0.340090
 70
 32
 40
0.000000
  0
VERTEX
  8
0
 10
4.218360
 20
0.400000
 30
0.332140
 70
 32
 40
0.000000
  0
VERTEX
  8
0
 10
4.545580
 20
0.400000
 30
0.317970
 70
 32
 40
0.000000
  0
VERTEX
  8
0
 10
4.817240
 20
0.400000
 30
0.307440
 70
 32
 40
0.000000
  0
VERTEX
  8
0
 10
4.872890
 20
0.400000
 30
0.305400
 70
 32
 40
0.000000
  0
VERTEX
  8
0
 10
5.200220
 20
0.400000
 30
0.294120
 70
 32
 40
0.000000
  0
VERTEX
  8
0
 10
5.483940
 20
0.400000
 30
0.285080
 70
 32
 40
0.000000
  0
SEQEND
  8
0
  0
POLYLINE
  8
0
 62
9
  6
CONTINUOUS
 66
  1
 70
  8
  0
VERTEX
  8
0
 10
3.377510
 20
-0.400000
 30
0.377670
 70
 32
 40
0.000000
  0
VERTEX
  8
0
 10
3.564400
 20
-0.400000
 30
0.366330
 70
 32
 40
0.000000
  0
VERTEX
  8
0
 10
3.891270
 20
-0.400000
 30
0.348190
 70
 32
 40
0.000000
  0
VERTEX
  8
0
 10
4.051170
 20
-0.400000
 30
0.340090
 70
 32
 40
0.000000
  0
VERTEX
  8
0
 10
4.218360
 20
-0.400000
 30
0.332140
 70
 32
 40
0.000000
  0
VERTEX
  8
0
 10
4.545580
 20
-0.400000
 30
0.317970
 70
 32
 40
0.000000
  0
VERTEX
  8
0
 10
4.817240
 20
-0.400000
 30
0.307440
 70
 32
 40
0.000000
  0
VERTEX
  8
0
 10
4.872890
 20
-0.400000
 30
0.305400
 70
 32
 40
0.000000
  0
VERTEX
  8
0
 10
5.200220
 20
-0.400000
 30
0.294120
 70
 32
 40
0.000000
  0
VERTEX
  8
0
 10
5.483940
 20
-0.400000
 30
0.285080
 70
 32
 40
0.000000
  0
SEQEND
  8
0
  0
POLYLINE
  8
0
 62
14
  6
CONTINUOUS
 66
  1
 70
  8
  0
VERTEX
  8
0
 10
4.628120
 20
0.000000
 30
-0.300000
 70
 32
 40
0.000000
  0
VERTEX
  8
0
 10
4.557460
 20
0.071590
 30
-0.300000
 70
 32
 40
0.000000
  0
VERTEX
  8
0
 10
4.527600
 20
0.085990
 30
-0.300000
 70
 32
 40
0.000000
  0
VERTEX
  8
0
 10
4.229740
 20
0.163230
 30
-0.300000
 70
 32
 40
0.000000
  0
VERTEX
  8
0
 10
4.166370
 20
0.172890
 30
-0.300000
 70
 32
 40
0.000000
  0
VERTEX
  8
0
 10
3.901920
 20
0.200930
 30
-0.300000
 70
 32
 40
0.000000
  0
VERTEX
  8
0
 10
3.574210
 20
0.216230
 30
-0.300000
 70
 32
 40
0.000000
  0
VERTEX
  8
0
 10
3.246790
 20
0.214580
 30
-0.300000
 70
 32
 40
0.000000
  0
VERTEX
  8
0
 10
2.919860
 20
0.196250
 30
-0.300000
 70
 32
 40
0.000000
  0
VERTEX
  8
0
 10
2.701160
 20
0.172680
 30
-0.300000
 70
 32
 40
0.000000
  0
VERTEX
  8
0
 10
2.593710
 20
0.156500
 30
-0.300000
 70
 32
 40
0.000000
  0
VERTEX
  8
0
 10
2.311310
 20
0.084440
 30
-0.300000
 70
 32
 40
0.000000
  0
VERTEX
  8
0
 10
2.268790
 20
0.063700
 30
-0.300000
 70
 32
 40
0.000000
  0
VERTEX
  8
0
 10
2.214650
 20
0.000000
 30
-0.300000
 70
 32
 40
0.000000
  0
SEQEND
  8
0
  0
POLYLINE
  8
0
 62
14
  6
CONTINUOUS
 66
  1
 70
  8
  0
VERTEX
  8
0
 10
4.628120
 20
0.000000
 30
-0.300000
 70
 32
 40
0.000000
  0
VERTEX
  8
0
 10
4.557460
 20
-0.071590
 30
-0.300000
 70
 32
 40
0.000000
  0
VERTEX
  8
0
 10
4.527600
 20
-0.085990
 30
-0.300000
 70
 32
 40
0.000000
  0
VERTEX
  8
0
 10
4.229740
 20
-0.163230
 30
-0.300000
 70
 32
 40
0.000000
  0
VERTEX
  8
0
 10
4.166370
 20
-0.172890
 30
-0.300000
 70
 32
 40
0.000000
  0
VERTEX
  8
0
 10
3.901920
 20
-0.200930
 30
-0.300000
 70
 32
 40
0.000000
  0
VERTEX
  8
0
 10
3.574210
 20
-0.216230
 30
-0.300000
 70
 32
 40
0.000000
  0
VERTEX
  8
0
 10
3.246790
 20
-0.214580
 30
-0.300000
 70
 32
 40
0.000000
  0
VERTEX
  8
0
 10
2.919860
 20
-0.196250
 30
-0.300000
 70
 32
 40
0.000000
  0
VERTEX
  8
0
 10
2.701160
 20
-0.172680
 30
-0.300000
 70
 32
 40
0.000000
  0
VERTEX
  8
0
 10
2.593710
 20
-0.156500
 30
-0.300000
 70
 32
 40
0.000000
  0
VERTEX
  8
0
 10
2.311310
 20
-0.084440
 30
-0.300000
 70
 32
 40
0.000000
  0
VERTEX
  8
0
 10
2.268790
 20
-0.063700
 30
-0.300000
 70
 32
 40
0.000000
  0
VERTEX
  8
0
 10
2.214650
 20
0.000000
 30
-0.300000
 70
 32
 40
0.000000
  0
SEQEND
  8
0
  0
POLYLINE
  8
0
 62
14
  6
CONTINUOUS
 66
  1
 70
  8
  0
VERTEX
  8
0
 10
5.549040
 20
0.000000
 30
-0.200000
 70
 32
 40
0.000000
  0
VERTEX
  8
0
 10
5.533570
 20
0.042510
 30
-0.200000
 70
 32
 40
0.000000
  0
VERTEX
  8
0
 10
5.509830
 20
0.070090
 30
-0.200000
 70
 32
 40
0.000000
  0
VERTEX
  8
0
 10
5.392220
 20
0.141420
 30
-0.200000
 70
 32
 40
0.000000
  0
VERTEX
  8
0
 10
5.207510
 20
0.204470
 30
-0.200000
 70
 32
 40
0.000000
  0
VERTEX
  8
0
 10
5.152560
 20
0.218740
 30
-0.200000
 70
 32
 40
0.000000
  0
VERTEX
  8
0
 10
4.880640
 20
0.273340
 30
-0.200000
 70
 32
 40
0.000000
  0
VERTEX
  8
0
 10
4.624200
 20
0.308730
 30
-0.200000
 70
 32
 40
0.000000
  0
VERTEX
  8
0
 10
4.553220
 20
0.316510
 30
-0.200000
 70
 32
 40
0.000000
  0
VERTEX
  8
0
 10
4.225450
 20
0.343390
 30
-0.200000
 70
 32
 40
0.000000
  0
VERTEX
  8
0
 10
3.897560
 20
0.357780
 30
-0.200000
 70
 32
 40
0.000000
  0
VERTEX
  8
0
 10
3.569750
 20
0.361760
 30
-0.200000
 70
 32
 40
0.000000
  0
VERTEX
  8
0
 10
3.242170
 20
0.356140
 30
-0.200000
 70
 32
 40
0.000000
  0
VERTEX
  8
0
 10
2.914980
 20
0.340990
 30
-0.200000
 70
 32
 40
0.000000
  0
VERTEX
  8
0
 10
2.588330
 20
0.315830
 30
-0.200000
 70
 32
 40
0.000000
  0
VERTEX
  8
0
 10
2.472270
 20
0.304290
 30
-0.200000
 70
 32
 40
0.000000
  0
VERTEX
  8
0
 10
2.262410
 20
0.279710
 30
-0.200000
 70
 32
 40
0.000000
  0
VERTEX
  8
0
 10
1.937460
 20
0.231120
 30
-0.200000
 70
 32
 40
0.000000
  0
VERTEX
  8
0
 10
1.732280
 20
0.192010
 30
-0.200000
 70
 32
 40
0.000000
  0
VERTEX
  8
0
 10
1.613930
 20
0.164990
 30
-0.200000
 70
 32
 40
0.000000
  0
VERTEX
  8
0
 10
1.451410
 20
0.118210
 30
-0.200000
 70
 32
 40
0.000000
  0
VERTEX
  8
0
 10
1.323020
 20
0.057990
 30
-0.200000
 70
 32
 40
0.000000
  0
VERTEX
  8
0
 10
1.292840
 20
0.027150
 30
-0.200000
 70
 32
 40
0.000000
  0
VERTEX
  8
0
 10
1.284800
 20
0.000000
 30
-0.200000
 70
 32
 40
0.000000
  0
SEQEND
  8
0
  0
POLYLINE
  8
0
 62
14
  6
CONTINUOUS
 66
  1
 70
  8
  0
VERTEX
  8
0
 10
5.549040
 20
0.000000
 30
-0.200000
 70
 32
 40
0.000000
  0
VERTEX
  8
0
 10
5.533570
 20
-0.042510
 30
-0.200000
 70
 32
 40
0.000000
  0
VERTEX
  8
0
 10
5.509830
 20
-0.070090
 30
-0.200000
 70
 32
 40
0.000000
  0
VERTEX
  8
0
 10
5.392220
 20
-0.141420
 30
-0.200000
 70
 32
 40
0.000000
  0
VERTEX
  8
0
 10
5.207510
 20
-0.204470
 30
-0.200000
 70
 32
 40
0.000000
  0
VERTEX
  8
0
 10
5.152560
 20
-0.218740
 30
-0.200000
 70
 32
 40
0.000000
  0
VERTEX
  8
0
 10
4.880640
 20
-0.273340
 30
-0.200000
 70
 32
 40
0.000000
  0
VERTEX
  8
0
 10
4.624200
 20
-0.308730
 30
-0.200000
 70
 32
 40
0.000000
  0
VERTEX
  8
0
 10
4.553220
 20
-0.316510
 30
-0.200000
 70
 32
 40
0.000000
  0
VERTEX
  8
0
 10
4.225450
 20
-0.343390
 30
-0.200000
 70
 32
 40
0.000000
  0
VERTEX
  8
0
 10
3.897560
 20
-0.357780
 30
-0.200000
 70
 32
 40
0.000000
  0
VERTEX
  8
0
 10
3.569750
 20
-0.361760
 30
-0.200000
 70
 32
 40
0.000000
  0
VERTEX
  8
0
 10
3.242170
 20
-0.356140
 30
-0.200000
 70
 32
 40
0.000000
  0
VERTEX
  8
0
 10
2.914980
 20
-0.340990
 30
-0.200000
 70
 32
 40
0.000000
  0
VERTEX
  8
0
 10
2.588330
 20
-0.315830
 30
-0.200000
 70
 32
 40
0.000000
  0
VERTEX
  8
0
 10
2.472270
 20
-0.304290
 30
-0.200000
 70
 32
 40
0.000000
  0
VERTEX
  8
0
 10
2.262410
 20
-0.279710
 30
-0.200000
 70
 32
 40
0.000000
  0
VERTEX
  8
0
 10
1.937460
 20
-0.231120
 30
-0.200000
 70
 32
 40
0.000000
  0
VERTEX
  8
0
 10
1.732280
 20
-0.192010
 30
-0.200000
 70
 32
 40
0.000000
  0
VERTEX
  8
0
 10
1.613930
 20
-0.164990
 30
-0.200000
 70
 32
 40
0.000000
  0
VERTEX
  8
0
 10
1.451410
 20
-0.118210
 30
-0.200000
 70
 32
 40
0.000000
  0
VERTEX
  8
0
 10
1.323020
 20
-0.057990
 30
-0.200000
 70
 32
 40
0.000000
  0
VERTEX
  8
0
 10
1.292840
 20
-0.027150
 30
-0.200000
 70
 32
 40
0.000000
  0
VERTEX
  8
0
 10
1.284800
 20
0.000000
 30
-0.200000
 70
 32
 40
0.000000
  0
SEQEND
  8
0
  0
POLYLINE
  8
0
 62
14
  6
CONTINUOUS
 66
  1
 70
  8
  0
VERTEX
  8
0
 10
6.153050
 20
0.000000
 30
-0.100000
 70
 32
 40
0.000000
  0
VERTEX
  8
0
 10
6.133390
 20
0.053480
 30
-0.100000
 70
 32
 40
0.000000
  0
VERTEX
  8
0
 10
6.073140
 20
0.108590
 30
-0.100000
 70
 32
 40
0.000000
  0
VERTEX
  8
0
 10
5.957060
 20
0.169000
 30
-0.100000
 70
 32
 40
0.000000
  0
VERTEX
  8
0
 10
5.855790
 20
0.206710
 30
-0.100000
 70
 32
 40
0.000000
  0
VERTEX
  8
0
 10
5.747870
 20
0.239490
 30
-0.100000
 70
 32
 40
0.000000
  0
VERTEX
  8
0
 10
5.530820
 20
0.291990
 30
-0.100000
 70
 32
 40
0.000000
  0
VERTEX
  8
0
 10
5.331670
 20
0.329890
 30
-0.100000
 70
 32
 40
0.000000
  0
VERTEX
  8
0
 10
5.204810
 20
0.350210
 30
-0.100000
 70
 32
 40
0.000000
  0
VERTEX
  8
0
 10
4.877950
 20
0.391530
 30
-0.100000
 70
 32
 40
0.000000
  0
VERTEX
  8
0
 10
4.550470
 20
0.419820
 30
-0.100000
 70
 32
 40
0.000000
  0
VERTEX
  8
0
 10
4.222590
 20
0.437320
 30
-0.100000
 70
 32
 40
0.000000
  0
VERTEX
  8
0
 10
3.894550
 20
0.445570
 30
-0.100000
 70
 32
 40
0.000000
  0
VERTEX
  8
0
 10
3.566560
 20
0.445550
 30
-0.100000
 70
 32
 40
0.000000
  0
VERTEX
  8
0
 10
3.238800
 20
0.437480
 30
-0.100000
 70
 32
 40
0.000000
  0
VERTEX
  8
0
 10
2.911450
 20
0.421140
 30
-0.100000
 70
 32
 40
0.000000
  0
VERTEX
  8
0
 10
2.584640
 20
0.396130
 30
-0.100000
 70
 32
 40
0.000000
  0
VERTEX
  8
0
 10
2.258480
 20
0.362110
 30
-0.100000
 70
 32
 40
0.000000
  0
VERTEX
  8
0
 10
1.933130
 20
0.319270
 30
-0.100000
 70
 32
 40
0.000000
  0
VERTEX
  8
0
 10
1.648630
 20
0.274770
 30
-0.100000
 70
 32
 40
0.000000
  0
VERTEX
  8
0
 10
1.608710
 20
0.268000
 30
-0.100000
 70
 32
 40
0.000000
  0
VERTEX
  8
0
 10
1.285420
 20
0.208360
 30
-0.100000
 70
 32
 40
0.000000
  0
VERTEX
  8
0
 10
1.069700
 20
0.163220
 30
-0.100000
 70
 32
 40
0.000000
  0
VERTEX
  8
0
 10
0.963680
 20
0.138970
 30
-0.100000
 70
 32
 40
0.000000
  0
VERTEX
  8
0
 10
0.826770
 20
0.104570
 30
-0.100000
 70
 32
 40
0.000000
  0
VERTEX
  8
0
 10
0.692720
 20
0.063730
 30
-0.100000
 70
 32
 40
0.000000
  0
VERTEX
  8
0
 10
0.644270
 20
0.043660
 30
-0.100000
 70
 32
 40
0.000000
  0
VERTEX
  8
0
 10
0.621780
 20
0.030840
 30
-0.100000
 70
 32
 40
0.000000
  0
VERTEX
  8
0
 10
0.599610
 20
0.000000
 30
-0.100000
 70
 32
 40
0.000000
  0
SEQEND
  8
0
  0
POLYLINE
  8
0
 62
14
  6
CONTINUOUS
 66
  1
 70
  8
  0
VERTEX
  8
0
 10
6.153050
 20
0.000000
 30
-0.100000
 70
 32
 40
0.000000
  0
VERTEX
  8
0
 10
6.133390
 20
-0.053480
 30
-0.100000
 70
 32
 40
0.000000
  0
VERTEX
  8
0
 10
6.073140
 20
-0.108590
 30
-0.100000
 70
 32
 40
0.000000
  0
VERTEX
  8
0
 10
5.957060
 20
-0.169000
 30
-0.100000
 70
 32
 40
0.000000
  0
VERTEX
  8
0
 10
5.855790
 20
-0.206710
 30
-0.100000
 70
 32
 40
0.000000
  0
VERTEX
  8
0
 10
5.747870
 20
-0.239490
 30
-0.100000
 70
 32
 40
0.000000
  0
VERTEX
  8
0
 10
5.530820
 20
-0.291990
 30
-0.100000
 70
 32
 40
0.000000
  0
VERTEX
  8
0
 10
5.331670
 20
-0.329890
 30
-0.100000
 70
 32
 40
0.000000
  0
VERTEX
  8
0
 10
5.204810
 20
-0.350210
 30
-0.100000
 70
 32
 40
0.000000
  0
VERTEX
  8
0
 10
4.877950
 20
-0.391530
 30
-0.100000
 70
 32
 40
0.000000
  0
VERTEX
  8
0
 10
4.550470
 20
-0.419820
 30
-0.100000
 70
 32
 40
0.000000
  0
VERTEX
  8
0
 10
4.222590
 20
-0.437320
 30
-0.100000
 70
 32
 40
0.000000
  0
VERTEX
  8
0
 10
3.894550
 20
-0.445570
 30
-0.100000
 70
 32
 40
0.000000
  0
VERTEX
  8
0
 10
3.566560
 20
-0.445550
 30
-0.100000
 70
 32
 40
0.000000
  0
VERTEX
  8
0
 10
3.238800
 20
-0.437480
 30
-0.100000
 70
 32
 40
0.000000
  0
VERTEX
  8
0
 10
2.911450
 20
-0.421140
 30
-0.100000
 70
 32
 40
0.000000
  0
VERTEX
  8
0
 10
2.584640
 20
-0.396130
 30
-0.100000
 70
 32
 40
0.000000
  0
VERTEX
  8
0
 10
2.258480
 20
-0.362110
 30
-0.100000
 70
 32
 40
0.000000
  0
VERTEX
  8
0
 10
1.933130
 20
-0.319270
 30
-0.100000
 70
 32
 40
0.000000
  0
VERTEX
  8
0
 10
1.648630
 20
-0.274770
 30
-0.100000
 70
 32
 40
0.000000
  0
VERTEX
  8
0
 10
1.608710
 20
-0.268000
 30
-0.100000
 70
 32
 40
0.000000
  0
VERTEX
  8
0
 10
1.285420
 20
-0.208360
 30
-0.100000
 70
 32
 40
0.000000
  0
VERTEX
  8
0
 10
1.069700
 20
-0.163220
 30
-0.100000
 70
 32
 40
0.000000
  0
VERTEX
  8
0
 10
0.963680
 20
-0.138970
 30
-0.100000
 70
 32
 40
0.000000
  0
VERTEX
  8
0
 10
0.826770
 20
-0.104570
 30
-0.100000
 70
 32
 40
0.000000
  0
VERTEX
  8
0
 10
0.692720
 20
-0.063730
 30
-0.100000
 70
 32
 40
0.000000
  0
VERTEX
  8
0
 10
0.644270
 20
-0.043660
 30
-0.100000
 70
 32
 40
0.000000
  0
VERTEX
  8
0
 10
0.621780
 20
-0.030840
 30
-0.100000
 70
 32
 40
0.000000
  0
VERTEX
  8
0
 10
0.599610
 20
0.000000
 30
-0.100000
 70
 32
 40
0.000000
  0
SEQEND
  8
0
  0
POLYLINE
  8
0
 62
14
  6
CONTINUOUS
 66
  1
 70
  8
  0
VERTEX
  8
0
 10
6.500000
 20
0.138000
 30
0.000000
 70
 32
 40
0.000000
  0
VERTEX
  8
0
 10
6.445730
 20
0.164030
 30
0.000000
 70
 32
 40
0.000000
  0
VERTEX
  8
0
 10
6.279950
 20
0.224760
 30
0.000000
 70
 32
 40
0.000000
  0
VERTEX
  8
0
 10
6.178100
 20
0.254850
 30
0.000000
 70
 32
 40
0.000000
  0
VERTEX
  8
0
 10
5.953900
 20
0.310110
 30
0.000000
 70
 32
 40
0.000000
  0
VERTEX
  8
0
 10
5.854400
 20
0.331030
 30
0.000000
 70
 32
 40
0.000000
  0
VERTEX
  8
0
 10
5.529340
 20
0.387860
 30
0.000000
 70
 32
 40
0.000000
  0
VERTEX
  8
0
 10
5.203200
 20
0.430640
 30
0.000000
 70
 32
 40
0.000000
  0
VERTEX
  8
0
 10
5.057300
 20
0.445920
 30
0.000000
 70
 32
 40
0.000000
  0
VERTEX
  8
0
 10
4.876230
 20
0.461930
 30
0.000000
 70
 32
 40
0.000000
  0
VERTEX
  8
0
 10
4.548640
 20
0.483330
 30
0.000000
 70
 32
 40
0.000000
  0
VERTEX
  8
0
 10
4.220660
 20
0.496040
 30
0.000000
 70
 32
 40
0.000000
  0
VERTEX
  8
0
 10
3.892500
 20
0.501030
 30
0.000000
 70
 32
 40
0.000000
  0
VERTEX
  8
0
 10
3.564370
 20
0.498950
 30
0.000000
 70
 32
 40
0.000000
  0
VERTEX
  8
0
 10
3.236460
 20
0.489540
 30
0.000000
 70
 32
 40
0.000000
  0
VERTEX
  8
0
 10
3.132340
 20
0.484930
 30
0.000000
 70
 32
 40
0.000000
  0
VERTEX
  8
0
 10
2.908980
 20
0.472240
 30
0.000000
 70
 32
 40
0.000000
  0
VERTEX
  8
0
 10
2.582110
 20
0.446350
 30
0.000000
 70
 32
 40
0.000000
  0
VERTEX
  8
0
 10
2.255990
 20
0.411370
 30
0.000000
 70
 32
 40
0.000000
  0
VERTEX
  8
0
 10
1.930730
 20
0.367830
 30
0.000000
 70
 32
 40
0.000000
  0
VERTEX
  8
0
 10
1.606390
 20
0.316560
 30
0.000000
 70
 32
 40
0.000000
  0
VERTEX
  8
0
 10
1.283040
 20
0.258530
 30
0.000000
 70
 32
 40
0.000000
  0
VERTEX
  8
0
 10
0.960730
 20
0.194940
 30
0.000000
 70
 32
 40
0.000000
  0
VERTEX
  8
0
 10
0.930860
 20
0.188800
 30
0.000000
 70
 32
 40
0.000000
  0
VERTEX
  8
0
 10
0.639520
 20
0.127420
 30
0.000000
 70
 32
 40
0.000000
  0
VERTEX
  8
0
 10
0.508070
 20
0.099200
 30
0.000000
 70
 32
 40
0.000000
  0
VERTEX
  8
0
 10
0.319660
 20
0.059270
 30
0.000000
 70
 32
 40
0.000000
  0
VERTEX
  8
0
 10
0.301450
 20
0.055490
 30
0.000000
 70
 32
 40
0.000000
  0
VERTEX
  8
0
 10
0.165050
 20
0.028300
 30
0.000000
 70
 32
 40
0.000000
  0
VERTEX
  8
0
 10
0.072880
 20
0.012000
 30
0.000000
 70
 32
 40
0.000000
  0
VERTEX
  8
0
 10
0.018240
 20
0.003670
 30
0.000000
 70
 32
 40
0.000000
  0
VERTEX
  8
0
 10
0.000000
 20
0.000000
 30
0.000000
 70
 32
 40
0.000000
  0
SEQEND
  8
0
  0
POLYLINE
  8
0
 62
14
  6
CONTINUOUS
 66
  1
 70
  8
  0
VERTEX
  8
0
 10
6.500000
 20
-0.138000
 30
0.000000
 70
 32
 40
0.000000
  0
VERTEX
  8
0
 10
6.445730
 20
-0.164030
 30
0.000000
 70
 32
 40
0.000000
  0
VERTEX
  8
0
 10
6.279950
 20
-0.224760
 30
0.000000
 70
 32
 40
0.000000
  0
VERTEX
  8
0
 10
6.178100
 20
-0.254850
 30
0.000000
 70
 32
 40
0.000000
  0
VERTEX
  8
0
 10
5.953900
 20
-0.310110
 30
0.000000
 70
 32
 40
0.000000
  0
VERTEX
  8
0
 10
5.854400
 20
-0.331030
 30
0.000000
 70
 32
 40
0.000000
  0
VERTEX
  8
0
 10
5.529340
 20
-0.387860
 30
0.000000
 70
 32
 40
0.000000
  0
VERTEX
  8
0
 10
5.203200
 20
-0.430640
 30
0.000000
 70
 32
 40
0.000000
  0
VERTEX
  8
0
 10
5.057300
 20
-0.445920
 30
0.000000
 70
 32
 40
0.000000
  0
VERTEX
  8
0
 10
4.876230
 20
-0.461930
 30
0.000000
 70
 32
 40
0.000000
  0
VERTEX
  8
0
 10
4.548640
 20
-0.483330
 30
0.000000
 70
 32
 40
0.000000
  0
VERTEX
  8
0
 10
4.220660
 20
-0.496040
 30
0.000000
 70
 32
 40
0.000000
  0
VERTEX
  8
0
 10
3.892500
 20
-0.501030
 30
0.000000
 70
 32
 40
0.000000
  0
VERTEX
  8
0
 10
3.564370
 20
-0.498950
 30
0.000000
 70
 32
 40
0.000000
  0
VERTEX
  8
0
 10
3.236460
 20
-0.489540
 30
0.000000
 70
 32
 40
0.000000
  0
VERTEX
  8
0
 10
3.132340
 20
-0.484930
 30
0.000000
 70
 32
 40
0.000000
  0
VERTEX
  8
0
 10
2.908980
 20
-0.472240
 30
0.000000
 70
 32
 40
0.000000
  0
VERTEX
  8
0
 10
2.582110
 20
-0.446350
 30
0.000000
 70
 32
 40
0.000000
  0
VERTEX
  8
0
 10
2.255990
 20
-0.411370
 30
0.000000
 70
 32
 40
0.000000
  0
VERTEX
  8
0
 10
1.930730
 20
-0.367830
 30
0.000000
 70
 32
 40
0.000000
  0
VERTEX
  8
0
 10
1.606390
 20
-0.316560
 30
0.000000
 70
 32
 40
0.000000
  0
VERTEX
  8
0
 10
1.283040
 20
-0.258530
 30
0.000000
 70
 32
 40
0.000000
  0
VERTEX
  8
0
 10
0.960730
 20
-0.194940
 30
0.000000
 70
 32
 40
0.000000
  0
VERTEX
  8
0
 10
0.930860
 20
-0.188800
 30
0.000000
 70
 32
 40
0.000000
  0
VERTEX
  8
0
 10
0.639520
 20
-0.127420
 30
0.000000
 70
 32
 40
0.000000
  0
VERTEX
  8
0
 10
0.508070
 20
-0.099200
 30
0.000000
 70
 32
 40
0.000000
  0
VERTEX
  8
0
 10
0.319660
 20
-0.059270
 30
0.000000
 70
 32
 40
0.000000
  0
VERTEX
  8
0
 10
0.301450
 20
-0.055490
 30
0.000000
 70
 32
 40
0.000000
  0
VERTEX
  8
0
 10
0.165050
 20
-0.028300
 30
0.000000
 70
 32
 40
0.000000
  0
VERTEX
  8
0
 10
0.072880
 20
-0.012000
 30
0.000000
 70
 32
 40
0.000000
  0
VERTEX
  8
0
 10
0.018240
 20
-0.003670
 30
0.000000
 70
 32
 40
0.000000
  0
VERTEX
  8
0
 10
0.000000
 20
0.000000
 30
0.000000
 70
 32
 40
0.000000
  0
SEQEND
  8
0
  0
POLYLINE
  8
0
 62
14
  6
CONTINUOUS
 66
  1
 70
  8
  0
VERTEX
  8
0
 10
0.000000
 20
0.016020
 30
0.100000
 70
 32
 40
0.000000
  0
VERTEX
  8
0
 10
0.084540
 20
0.032690
 30
0.100000
 70
 32
 40
0.000000
  0
VERTEX
  8
0
 10
0.318950
 20
0.082290
 30
0.100000
 70
 32
 40
0.000000
  0
VERTEX
  8
0
 10
0.427530
 20
0.105970
 30
0.100000
 70
 32
 40
0.000000
  0
VERTEX
  8
0
 10
0.639050
 20
0.151990
 30
0.100000
 70
 32
 40
0.000000
  0
VERTEX
  8
0
 10
0.960220
 20
0.219710
 30
0.100000
 70
 32
 40
0.000000
  0
VERTEX
  8
0
 10
1.282430
 20
0.283260
 30
0.100000
 70
 32
 40
0.000000
  0
VERTEX
  8
0
 10
1.605640
 20
0.341360
 30
0.100000
 70
 32
 40
0.000000
  0
VERTEX
  8
0
 10
1.929840
 20
0.392950
 30
0.100000
 70
 32
 40
0.000000
  0
VERTEX
  8
0
 10
2.203500
 20
0.430620
 30
0.100000
 70
 32
 40
0.000000
  0
VERTEX
  8
0
 10
2.254960
 20
0.437060
 30
0.100000
 70
 32
 40
0.000000
  0
VERTEX
  8
0
 10
2.580990
 20
0.472720
 30
0.100000
 70
 32
 40
0.000000
  0
VERTEX
  8
0
 10
2.907840
 20
0.499290
 30
0.100000
 70
 32
 40
0.000000
  0
VERTEX
  8
0
 10
3.235330
 20
0.517370
 30
0.100000
 70
 32
 40
0.000000
  0
VERTEX
  8
0
 10
3.563240
 20
0.527870
 30
0.100000
 70
 32
 40
0.000000
  0
VERTEX
  8
0
 10
3.891370
 20
0.531530
 30
0.100000
 70
 32
 40
0.000000
  0
VERTEX
  8
0
 10
4.219510
 20
0.528780
 30
0.100000
 70
 32
 40
0.000000
  0
VERTEX
  8
0
 10
4.547480
 20
0.519110
 30
0.100000
 70
 32
 40
0.000000
  0
VERTEX
  8
0
 10
4.875070
 20
0.501790
 30
0.100000
 70
 32
 40
0.000000
  0
VERTEX
  8
0
 10
5.202090
 20
0.476040
 30
0.100000
 70
 32
 40
0.000000
  0
VERTEX
  8
0
 10
5.528320
 20
0.440960
 30
0.100000
 70
 32
 40
0.000000
  0
VERTEX
  8
0
 10
5.853540
 20
0.395470
 30
0.100000
 70
 32
 40
0.000000
  0
VERTEX
  8
0
 10
6.148820
 20
0.343640
 30
0.100000
 70
 32
 40
0.000000
  0
VERTEX
  8
0
 10
6.177530
 20
0.338000
 30
0.100000
 70
 32
 40
0.000000
  0
VERTEX
  8
0
 10
6.500000
 20
0.265750
 30
0.100000
 70
 32
 40
0.000000
  0
SEQEND
  8
0
  0
POLYLINE
  8
0
 62
14
  6
CONTINUOUS
 66
  1
 70
  8
  0
VERTEX
  8
0
 10
0.000000
 20
-0.016020
 30
0.100000
 70
 32
 40
0.000000
  0
VERTEX
  8
0
 10
0.084540
 20
-0.032690
 30
0.100000
 70
 32
 40
0.000000
  0
VERTEX
  8
0
 10
0.318950
 20
-0.082290
 30
0.100000
 70
 32
 40
0.000000
  0
VERTEX
  8
0
 10
0.427530
 20
-0.105970
 30
0.100000
 70
 32
 40
0.000000
  0
VERTEX
  8
0
 10
0.639050
 20
-0.151990
 30
0.100000
 70
 32
 40
0.000000
  0
VERTEX
  8
0
 10
0.960220
 20
-0.219710
 30
0.100000
 70
 32
 40
0.000000
  0
VERTEX
  8
0
 10
1.282430
 20
-0.283260
 30
0.100000
 70
 32
 40
0.000000
  0
VERTEX
  8
0
 10
1.605640
 20
-0.341360
 30
0.100000
 70
 32
 40
0.000000
  0
VERTEX
  8
0
 10
1.929840
 20
-0.392950
 30
0.100000
 70
 32
 40
0.000000
  0
VERTEX
  8
0
 10
2.203500
 20
-0.430620
 30
0.100000
 70
 32
 40
0.000000
  0
VERTEX
  8
0
 10
2.254960
 20
-0.437060
 30
0.100000
 70
 32
 40
0.000000
  0
VERTEX
  8
0
 10
2.580990
 20
-0.472720
 30
0.100000
 70
 32
 40
0.000000
  0
VERTEX
  8
0
 10
2.907840
 20
-0.499290
 30
0.100000
 70
 32
 40
0.000000
  0
VERTEX
  8
0
 10
3.235330
 20
-0.517370
 30
0.100000
 70
 32
 40
0.000000
  0
VERTEX
  8
0
 10
3.563240
 20
-0.527870
 30
0.100000
 70
 32
 40
0.000000
  0
VERTEX
  8
0
 10
3.891370
 20
-0.531530
 30
0.100000
 70
 32
 40
0.000000
  0
VERTEX
  8
0
 10
4.219510
 20
-0.528780
 30
0.100000
 70
 32
 40
0.000000
  0
VERTEX
  8
0
 10
4.547480
 20
-0.519110
 30
0.100000
 70
 32
 40
0.000000
  0
VERTEX
  8
0
 10
4.875070
 20
-0.501790
 30
0.100000
 70
 32
 40
0.000000
  0
VERTEX
  8
0
 10
5.202090
 20
-0.476040
 30
0.100000
 70
 32
 40
0.000000
  0
VERTEX
  8
0
 10
5.528320
 20
-0.440960
 30
0.100000
 70
 32
 40
0.000000
  0
VERTEX
  8
0
 10
5.853540
 20
-0.395470
 30
0.100000
 70
 32
 40
0.000000
  0
VERTEX
  8
0
 10
6.148820
 20
-0.343640
 30
0.100000
 70
 32
 40
0.000000
  0
VERTEX
  8
0
 10
6.177530
 20
-0.338000
 30
0.100000
 70
 32
 40
0.000000
  0
VERTEX
  8
0
 10
6.500000
 20
-0.265750
 30
0.100000
 70
 32
 40
0.000000
  0
SEQEND
  8
0
  0
POLYLINE
  8
0
 62
14
  6
CONTINUOUS
 66
  1
 70
  8
  0
VERTEX
  8
0
 10
0.000000
 20
0.022830
 30
0.200000
 70
 32
 40
0.000000
  0
VERTEX
  8
0
 10
0.028820
 20
0.029240
 30
0.200000
 70
 32
 40
0.000000
  0
VERTEX
  8
0
 10
0.318970
 20
0.094690
 30
0.200000
 70
 32
 40
0.000000
  0
VERTEX
  8
0
 10
0.639070
 20
0.165530
 30
0.200000
 70
 32
 40
0.000000
  0
VERTEX
  8
0
 10
0.960270
 20
0.232650
 30
0.200000
 70
 32
 40
0.000000
  0
VERTEX
  8
0
 10
1.251650
 20
0.289130
 30
0.200000
 70
 32
 40
0.000000
  0
VERTEX
  8
0
 10
1.282540
 20
0.294850
 30
0.200000
 70
 32
 40
0.000000
  0
VERTEX
  8
0
 10
1.605820
 20
0.351310
 30
0.200000
 70
 32
 40
0.000000
  0
VERTEX
  8
0
 10
1.930070
 20
0.401300
 30
0.200000
 70
 32
 40
0.000000
  0
VERTEX
  8
0
 10
2.255220
 20
0.444120
 30
0.200000
 70
 32
 40
0.000000
  0
VERTEX
  8
0
 10
2.581230
 20
0.479050
 30
0.200000
 70
 32
 40
0.000000
  0
VERTEX
  8
0
 10
2.908000
 20
0.505660
 30
0.200000
 70
 32
 40
0.000000
  0
VERTEX
  8
0
 10
3.235350
 20
0.524520
 30
0.200000
 70
 32
 40
0.000000
  0
VERTEX
  8
0
 10
3.563090
 20
0.536380
 30
0.200000
 70
 32
 40
0.000000
  0
VERTEX
  8
0
 10
3.891040
 20
0.541820
 30
0.200000
 70
 32
 40
0.000000
  0
VERTEX
  8
0
 10
4.219030
 20
0.541100
 30
0.200000
 70
 32
 40
0.000000
  0
VERTEX
  8
0
 10
4.546870
 20
0.533790
 30
0.200000
 70
 32
 40
0.000000
  0
VERTEX
  8
0
 10
4.874390
 20
0.519320
 30
0.200000
 70
 32
 40
0.000000
  0
VERTEX
  8
0
 10
5.201360
 20
0.497160
 30
0.200000
 70
 32
 40
0.000000
  0
VERTEX
  8
0
 10
5.527610
 20
0.466830
 30
0.200000
 70
 32
 40
0.000000
  0
VERTEX
  8
0
 10
5.852930
 20
0.427950
 30
0.200000
 70
 32
 40
0.000000
  0
VERTEX
  8
0
 10
6.136000
 20
0.386830
 30
0.200000
 70
 32
 40
0.000000
  0
SEQEND
  8
0
  0
POLYLINE
  8
0
 62
14
  6
CONTINUOUS
 66
  1
 70
  8
  0
VERTEX
  8
0
 10
0.000000
 20
-0.022830
 30
0.200000
 70
 32
 40
0.000000
  0
VERTEX
  8
0
 10
0.028820
 20
-0.029240
 30
0.200000
 70
 32
 40
0.000000
  0
VERTEX
  8
0
 10
0.318970
 20
-0.094690
 30
0.200000
 70
 32
 40
0.000000
  0
VERTEX
  8
0
 10
0.639070
 20
-0.165530
 30
0.200000
 70
 32
 40
0.000000
  0
VERTEX
  8
0
 10
0.960270
 20
-0.232650
 30
0.200000
 70
 32
 40
0.000000
  0
VERTEX
  8
0
 10
1.251650
 20
-0.289130
 30
0.200000
 70
 32
 40
0.000000
  0
VERTEX
  8
0
 10
1.282540
 20
-0.294850
 30
0.200000
 70
 32
 40
0.000000
  0
VERTEX
  8
0
 10
1.605820
 20
-0.351310
 30
0.200000
 70
 32
 40
0.000000
  0
VERTEX
  8
0
 10
1.930070
 20
-0.401300
 30
0.200000
 70
 32
 40
0.000000
  0
VERTEX
  8
0
 10
2.255220
 20
-0.444120
 30
0.200000
 70
 32
 40
0.000000
  0
VERTEX
  8
0
 10
2.581230
 20
-0.479050
 30
0.200000
 70
 32
 40
0.000000
  0
VERTEX
  8
0
 10
2.908000
 20
-0.505660
 30
0.200000
 70
 32
 40
0.000000
  0
VERTEX
  8
0
 10
3.235350
 20
-0.524520
 30
0.200000
 70
 32
 40
0.000000
  0
VERTEX
  8
0
 10
3.563090
 20
-0.536380
 30
0.200000
 70
 32
 40
0.000000
  0
VERTEX
  8
0
 10
3.891040
 20
-0.541820
 30
0.200000
 70
 32
 40
0.000000
  0
VERTEX
  8
0
 10
4.219030
 20
-0.541100
 30
0.200000
 70
 32
 40
0.000000
  0
VERTEX
  8
0
 10
4.546870
 20
-0.533790
 30
0.200000
 70
 32
 40
0.000000
  0
VERTEX
  8
0
 10
4.874390
 20
-0.519320
 30
0.200000
 70
 32
 40
0.000000
  0
VERTEX
  8
0
 10
5.201360
 20
-0.497160
 30
0.200000
 70
 32
 40
0.000000
  0
VERTEX
  8
0
 10
5.527610
 20
-0.466830
 30
0.200000
 70
 32
 40
0.000000
  0
VERTEX
  8
0
 10
5.852930
 20
-0.427950
 30
0.200000
 70
 32
 40
0.000000
  0
VERTEX
  8
0
 10
6.136000
 20
-0.386830
 30
0.200000
 70
 32
 40
0.000000
  0
SEQEND
  8
0
  0
POLYLINE
  8
0
 62
14
  6
CONTINUOUS
 66
  1
 70
  8
  0
VERTEX
  8
0
 10
0.000000
 20
0.028140
 30
0.300000
 70
 32
 40
0.000000
  0
VERTEX
  8
0
 10
0.318930
 20
0.103190
 30
0.300000
 70
 32
 40
0.000000
  0
VERTEX
  8
0
 10
0.639110
 20
0.173720
 30
0.300000
 70
 32
 40
0.000000
  0
VERTEX
  8
0
 10
0.936000
 20
0.234100
 30
0.300000
 70
 32
 40
0.000000
  0
SEQEND
  8
0
  0
POLYLINE
  8
0
 62
14
  6
CONTINUOUS
 66
  1
 70
  8
  0
VERTEX
  8
0
 10
0.000000
 20
-0.028140
 30
0.300000
 70
 32
 40
0.000000
  0
VERTEX
  8
0
 10
0.318930
 20
-0.103190
 30
0.300000
 70
 32
 40
0.000000
  0
VERTEX
  8
0
 10
0.639110
 20
-0.173720
 30
0.300000
 70
 32
 40
0.000000
  0
VERTEX
  8
0
 10
0.936000
 20
-0.234100
 30
0.300000
 70
 32
 40
0.000000
  0
SEQEND
  8
0
  0
POLYLINE
  8
0
 62
14
  6
CONTINUOUS
 66
  1
 70
  8
  0
VERTEX
  8
0
 10
6.500000
 20
0.320820
 30
0.200000
 70
 32
 40
0.000000
  0
VERTEX
  8
0
 10
6.177120
 20
0.380060
 30
0.200000
 70
 32
 40
0.000000
  0
VERTEX
  8
0
 10
6.136000
 20
0.386830
 30
0.200000
 70
 32
 40
0.000000
  0
SEQEND
  8
0
  0
POLYLINE
  8
0
 62
14
  6
CONTINUOUS
 66
  1
 70
  8
  0
VERTEX
  8
0
 10
6.500000
 20
-0.320820
 30
0.200000
 70
 32
 40
0.000000
  0
VERTEX
  8
0
 10
6.177120
 20
-0.380060
 30
0.200000
 70
 32
 40
0.000000
  0
VERTEX
  8
0
 10
6.136000
 20
-0.386830
 30
0.200000
 70
 32
 40
0.000000
  0
SEQEND
  8
0
  0
POLYLINE
  8
0
 62
14
  6
CONTINUOUS
 66
  1
 70
  8
  0
VERTEX
  8
0
 10
4.976320
 20
0.437590
 30
0.300000
 70
 32
 40
0.000000
  0
VERTEX
  8
0
 10
4.952700
 20
0.453500
 30
0.300000
 70
 32
 40
0.000000
  0
VERTEX
  8
0
 10
4.882210
 20
0.470180
 30
0.300000
 70
 32
 40
0.000000
  0
VERTEX
  8
0
 10
4.873250
 20
0.471760
 30
0.300000
 70
 32
 40
0.000000
  0
VERTEX
  8
0
 10
4.765530
 20
0.487040
 30
0.300000
 70
 32
 40
0.000000
  0
VERTEX
  8
0
 10
4.602760
 20
0.503070
 30
0.300000
 70
 32
 40
0.000000
  0
VERTEX
  8
0
 10
4.545510
 20
0.507440
 30
0.300000
 70
 32
 40
0.000000
  0
VERTEX
  8
0
 10
4.391190
 20
0.516870
 30
0.300000
 70
 32
 40
0.000000
  0
VERTEX
  8
0
 10
4.217730
 20
0.524050
 30
0.300000
 70
 32
 40
0.000000
  0
VERTEX
  8
0
 10
4.123510
 20
0.526660
 30
0.300000
 70
 32
 40
0.000000
  0
VERTEX
  8
0
 10
3.890020
 20
0.529700
 30
0.300000
 70
 32
 40
0.000000
  0
VERTEX
  8
0
 10
3.781680
 20
0.529610
 30
0.300000
 70
 32
 40
0.000000
  0
VERTEX
  8
0
 10
3.562480
 20
0.526720
 30
0.300000
 70
 32
 40
0.000000
  0
VERTEX
  8
0
 10
3.320770
 20
0.519470
 30
0.300000
 70
 32
 40
0.000000
  0
VERTEX
  8
0
 10
3.235180
 20
0.515910
 30
0.300000
 70
 32
 40
0.000000
  0
VERTEX
  8
0
 10
2.908240
 20
0.497540
 30
0.300000
 70
 32
 40
0.000000
  0
VERTEX
  8
0
 10
2.609280
 20
0.474160
 30
0.300000
 70
 32
 40
0.000000
  0
VERTEX
  8
0
 10
2.581770
 20
0.471690
 30
0.300000
 70
 32
 40
0.000000
  0
VERTEX
  8
0
 10
2.255910
 20
0.438450
 30
0.300000
 70
 32
 40
0.000000
  0
VERTEX
  8
0
 10
1.930740
 20
0.398160
 30
0.300000
 70
 32
 40
0.000000
  0
VERTEX
  8
0
 10
1.606390
 20
0.351230
 30
0.300000
 70
 32
 40
0.000000
  0
VERTEX
  8
0
 10
1.282930
 20
0.298000
 30
0.300000
 70
 32
 40
0.000000
  0
VERTEX
  8
0
 10
0.960480
 20
0.238840
 30
0.300000
 70
 32
 40
0.000000
  0
VERTEX
  8
0
 10
0.936000
 20
0.234100
 30
0.300000
 70
 32
 40
0.000000
  0
SEQEND
  8
0
  0
POLYLINE
  8
0
 62
14
  6
CONTINUOUS
 66
  1
 70
  8
  0
VERTEX
  8
0
 10
4.976320
 20
-0.437590
 30
0.300000
 70
 32
 40
0.000000
  0
VERTEX
  8
0
 10
4.952700
 20
-0.453500
 30
0.300000
 70
 32
 40
0.000000
  0
VERTEX
  8
0
 10
4.882210
 20
-0.470180
 30
0.300000
 70
 32
 40
0.000000
  0
VERTEX
  8
0
 10
4.873250
 20
-0.471760
 30
0.300000
 70
 32
 40
0.000000
  0
VERTEX
  8
0
 10
4.765530
 20
-0.487040
 30
0.300000
 70
 32
 40
0.000000
  0
VERTEX
  8
0
 10
4.602760
 20
-0.503070
 30
0.300000
 70
 32
 40
0.000000
  0
VERTEX
  8
0
 10
4.545510
 20
-0.507440
 30
0.300000
 70
 32
 40
0.000000
  0
VERTEX
  8
0
 10
4.391190
 20
-0.516870
 30
0.300000
 70
 32
 40
0.000000
  0
VERTEX
  8
0
 10
4.217730
 20
-0.524050
 30
0.300000
 70
 32
 40
0.000000
  0
VERTEX
  8
0
 10
4.123510
 20
-0.526660
 30
0.300000
 70
 32
 40
0.000000
  0
VERTEX
  8
0
 10
3.890020
 20
-0.529700
 30
0.300000
 70
 32
 40
0.000000
  0
VERTEX
  8
0
 10
3.781680
 20
-0.529610
 30
0.300000
 70
 32
 40
0.000000
  0
VERTEX
  8
0
 10
3.562480
 20
-0.526720
 30
0.300000
 70
 32
 40
0.000000
  0
VERTEX
  8
0
 10
3.320770
 20
-0.519470
 30
0.300000
 70
 32
 40
0.000000
  0
VERTEX
  8
0
 10
3.235180
 20
-0.515910
 30
0.300000
 70
 32
 40
0.000000
  0
VERTEX
  8
0
 10
2.908240
 20
-0.497540
 30
0.300000
 70
 32
 40
0.000000
  0
VERTEX
  8
0
 10
2.609280
 20
-0.474160
 30
0.300000
 70
 32
 40
0.000000
  0
VERTEX
  8
0
 10
2.581770
 20
-0.471690
 30
0.300000
 70
 32
 40
0.000000
  0
VERTEX
  8
0
 10
2.255910
 20
-0.438450
 30
0.300000
 70
 32
 40
0.000000
  0
VERTEX
  8
0
 10
1.930740
 20
-0.398160
 30
0.300000
 70
 32
 40
0.000000
  0
VERTEX
  8
0
 10
1.606390
 20
-0.351230
 30
0.300000
 70
 32
 40
0.000000
  0
VERTEX
  8
0
 10
1.282930
 20
-0.298000
 30
0.300000
 70
 32
 40
0.000000
  0
VERTEX
  8
0
 10
0.960480
 20
-0.238840
 30
0.300000
 70
 32
 40
0.000000
  0
VERTEX
  8
0
 10
0.936000
 20
-0.234100
 30
0.300000
 70
 32
 40
0.000000
  0
SEQEND
  8
0
  0
POLYLINE
  8
0
 62
14
  6
CONTINUOUS
 66
  1
 70
  8
  0
VERTEX
  8
0
 10
0.000000
 20
0.028620
 30
0.400000
 70
 32
 40
0.000000
  0
VERTEX
  8
0
 10
0.319100
 20
0.102320
 30
0.400000
 70
 32
 40
0.000000
  0
VERTEX
  8
0
 10
0.639470
 20
0.170580
 30
0.400000
 70
 32
 40
0.000000
  0
VERTEX
  8
0
 10
0.961030
 20
0.232940
 30
0.400000
 70
 32
 40
0.000000
  0
VERTEX
  8
0
 10
1.149740
 20
0.266490
 30
0.400000
 70
 32
 40
0.000000
  0
VERTEX
  8
0
 10
1.283670
 20
0.288850
 30
0.400000
 70
 32
 40
0.000000
  0
VERTEX
  8
0
 10
1.607290
 20
0.337600
 30
0.400000
 70
 32
 40
0.000000
  0
VERTEX
  8
0
 10
1.831820
 20
0.366660
 30
0.400000
 70
 32
 40
0.000000
  0
VERTEX
  8
0
 10
1.931780
 20
0.378230
 30
0.400000
 70
 32
 40
0.000000
  0
VERTEX
  8
0
 10
2.250340
 20
0.408640
 30
0.400000
 70
 32
 40
0.000000
  0
VERTEX
  8
0
 10
2.257040
 20
0.409170
 30
0.400000
 70
 32
 40
0.000000
  0
VERTEX
  8
0
 10
2.537290
 20
0.425730
 30
0.400000
 70
 32
 40
0.000000
  0
VERTEX
  8
0
 10
2.583090
 20
0.427280
 30
0.400000
 70
 32
 40
0.000000
  0
VERTEX
  8
0
 10
2.742950
 20
0.429150
 30
0.400000
 70
 32
 40
0.000000
  0
VERTEX
  8
0
 10
2.889600
 20
0.423540
 30
0.400000
 70
 32
 40
0.000000
  0
VERTEX
  8
0
 10
2.910330
 20
0.421790
 30
0.400000
 70
 32
 40
0.000000
  0
VERTEX
  8
0
 10
2.988450
 20
0.410940
 30
0.400000
 70
 32
 40
0.000000
  0
VERTEX
  8
0
 10
3.045640
 20
0.392040
 30
0.400000
 70
 32
 40
0.000000
  0
VERTEX
  8
0
 10
3.064340
 20
0.366690
 30
0.400000
 70
 32
 40
0.000000
  0
SEQEND
  8
0
  0
POLYLINE
  8
0
 62
14
  6
CONTINUOUS
 66
  1
 70
  8
  0
VERTEX
  8
0
 10
0.000000
 20
-0.028620
 30
0.400000
 70
 32
 40
0.000000
  0
VERTEX
  8
0
 10
0.319100
 20
-0.102320
 30
0.400000
 70
 32
 40
0.000000
  0
VERTEX
  8
0
 10
0.639470
 20
-0.170580
 30
0.400000
 70
 32
 40
0.000000
  0
VERTEX
  8
0
 10
0.961030
 20
-0.232940
 30
0.400000
 70
 32
 40
0.000000
  0
VERTEX
  8
0
 10
1.149740
 20
-0.266490
 30
0.400000
 70
 32
 40
0.000000
  0
VERTEX
  8
0
 10
1.283670
 20
-0.288850
 30
0.400000
 70
 32
 40
0.000000
  0
VERTEX
  8
0
 10
1.607290
 20
-0.337600
 30
0.400000
 70
 32
 40
0.000000
  0
VERTEX
  8
0
 10
1.831820
 20
-0.366660
 30
0.400000
 70
 32
 40
0.000000
  0
VERTEX
  8
0
 10
1.931780
 20
-0.378230
 30
0.400000
 70
 32
 40
0.000000
  0
VERTEX
  8
0
 10
2.250340
 20
-0.408640
 30
0.400000
 70
 32
 40
0.000000
  0
VERTEX
  8
0
 10
2.257040
 20
-0.409170
 30
0.400000
 70
 32
 40
0.000000
  0
VERTEX
  8
0
 10
2.537290
 20
-0.425730
 30
0.400000
 70
 32
 40
0.000000
  0
VERTEX
  8
0
 10
2.583090
 20
-0.427280
 30
0.400000
 70
 32
 40
0.000000
  0
VERTEX
  8
0
 10
2.742950
 20
-0.429150
 30
0.400000
 70
 32
 40
0.000000
  0
VERTEX
  8
0
 10
2.889600
 20
-0.423540
 30
0.400000
 70
 32
 40
0.000000
  0
VERTEX
  8
0
 10
2.910330
 20
-0.421790
 30
0.400000
 70
 32
 40
0.000000
  0
VERTEX
  8
0
 10
2.988450
 20
-0.410940
 30
0.400000
 70
 32
 40
0.000000
  0
VERTEX
  8
0
 10
3.045640
 20
-0.392040
 30
0.400000
 70
 32
 40
0.000000
  0
VERTEX
  8
0
 10
3.064340
 20
-0.366690
 30
0.400000
 70
 32
 40
0.000000
  0
SEQEND
  8
0
  0
POLYLINE
  8
0
 62
14
  6
CONTINUOUS
 66
  1
 70
  8
  0
VERTEX
  8
0
 10
0.000000
 20
0.026780
 30
0.500000
 70
 32
 40
0.000000
  0
VERTEX
  8
0
 10
0.229340
 20
0.076010
 30
0.500000
 70
 32
 40
0.000000
  0
VERTEX
  8
0
 10
0.320020
 20
0.094540
 30
0.500000
 70
 32
 40
0.000000
  0
VERTEX
  8
0
 10
0.641340
 20
0.155440
 30
0.500000
 70
 32
 40
0.000000
  0
VERTEX
  8
0
 10
0.895680
 20
0.197690
 30
0.500000
 70
 32
 40
0.000000
  0
VERTEX
  8
0
 10
0.963940
 20
0.207990
 30
0.500000
 70
 32
 40
0.000000
  0
VERTEX
  8
0
 10
1.287840
 20
0.249470
 30
0.500000
 70
 32
 40
0.000000
  0
VERTEX
  8
0
 10
1.299980
 20
0.250750
 30
0.500000
 70
 32
 40
0.000000
  0
VERTEX
  8
0
 10
1.567790
 20
0.271520
 30
0.500000
 70
 32
 40
0.000000
  0
VERTEX
  8
0
 10
1.613280
 20
0.273230
 30
0.500000
 70
 32
 40
0.000000
  0
VERTEX
  8
0
 10
1.748500
 20
0.273010
 30
0.500000
 70
 32
 40
0.000000
  0
VERTEX
  8
0
 10
1.866220
 20
0.260710
 30
0.500000
 70
 32
 40
0.000000
  0
VERTEX
  8
0
 10
1.932860
 20
0.237000
 30
0.500000
 70
 32
 40
0.000000
  0
VERTEX
  8
0
 10
1.943110
 20
0.228630
 30
0.500000
 70
 32
 40
0.000000
  0
VERTEX
  8
0
 10
1.954500
 20
0.202540
 30
0.500000
 70
 32
 40
0.000000
  0
SEQEND
  8
0
  0
POLYLINE
  8
0
 62
14
  6
CONTINUOUS
 66
  1
 70
  8
  0
VERTEX
  8
0
 10
0.000000
 20
-0.026780
 30
0.500000
 70
 32
 40
0.000000
  0
VERTEX
  8
0
 10
0.229340
 20
-0.076010
 30
0.500000
 70
 32
 40
0.000000
  0
VERTEX
  8
0
 10
0.320020
 20
-0.094540
 30
0.500000
 70
 32
 40
0.000000
  0
VERTEX
  8
0
 10
0.641340
 20
-0.155440
 30
0.500000
 70
 32
 40
0.000000
  0
VERTEX
  8
0
 10
0.895680
 20
-0.197690
 30
0.500000
 70
 32
 40
0.000000
  0
VERTEX
  8
0
 10
0.963940
 20
-0.207990
 30
0.500000
 70
 32
 40
0.000000
  0
VERTEX
  8
0
 10
1.287840
 20
-0.249470
 30
0.500000
 70
 32
 40
0.000000
  0
VERTEX
  8
0
 10
1.299980
 20
-0.250750
 30
0.500000
 70
 32
 40
0.000000
  0
VERTEX
  8
0
 10
1.567790
 20
-0.271520
 30
0.500000
 70
 32
 40
0.000000
  0
VERTEX
  8
0
 10
1.613280
 20
-0.273230
 30
0.500000
 70
 32
 40
0.000000
  0
VERTEX
  8
0
 10
1.748500
 20
-0.273010
 30
0.500000
 70
 32
 40
0.000000
  0
VERTEX
  8
0
 10
1.866220
 20
-0.260710
 30
0.500000
 70
 32
 40
0.000000
  0
VERTEX
  8
0
 10
1.932860
 20
-0.237000
 30
0.500000
 70
 32
 40
0.000000
  0
VERTEX
  8
0
 10
1.943110
 20
-0.228630
 30
0.500000
 70
 32
 40
0.000000
  0
VERTEX
  8
0
 10
1.954500
 20
-0.202540
 30
0.500000
 70
 32
 40
0.000000
  0
SEQEND
  8
0
  0
POLYLINE
  8
0
 62
14
  6
CONTINUOUS
 66
  1
 70
  8
  0
VERTEX
  8
0
 10
0.000000
 20
0.022080
 30
0.600000
 70
 32
 40
0.000000
  0
VERTEX
  8
0
 10
0.062820
 20
0.032970
 30
0.600000
 70
 32
 40
0.000000
  0
VERTEX
  8
0
 10
0.322390
 20
0.073410
 30
0.600000
 70
 32
 40
0.000000
  0
VERTEX
  8
0
 10
0.472870
 20
0.092630
 30
0.600000
 70
 32
 40
0.000000
  0
VERTEX
  8
0
 10
0.646690
 20
0.109090
 30
0.600000
 70
 32
 40
0.000000
  0
VERTEX
  8
0
 10
0.730360
 20
0.113810
 30
0.600000
 70
 32
 40
0.000000
  0
VERTEX
  8
0
 10
0.891520
 20
0.111750
 30
0.600000
 70
 32
 40
0.000000
  0
VERTEX
  8
0
 10
0.975210
 20
0.095460
 30
0.600000
 70
 32
 40
0.000000
  0
VERTEX
  8
0
 10
0.980700
 20
0.093190
 30
0.600000
 70
 32
 40
0.000000
  0
VERTEX
  8
0
 10
1.009270
 20
0.061620
 30
0.600000
 70
 32
 40
0.000000
  0
SEQEND
  8
0
  0
POLYLINE
  8
0
 62
14
  6
CONTINUOUS
 66
  1
 70
  8
  0
VERTEX
  8
0
 10
0.000000
 20
-0.022080
 30
0.600000
 70
 32
 40
0.000000
  0
VERTEX
  8
0
 10
0.062820
 20
-0.032970
 30
0.600000
 70
 32
 40
0.000000
  0
VERTEX
  8
0
 10
0.322390
 20
-0.073410
 30
0.600000
 70
 32
 40
0.000000
  0
VERTEX
  8
0
 10
0.472870
 20
-0.092630
 30
0.600000
 70
 32
 40
0.000000
  0
VERTEX
  8
0
 10
0.646690
 20
-0.109090
 30
0.600000
 70
 32
 40
0.000000
  0
VERTEX
  8
0
 10
0.730360
 20
-0.113810
 30
0.600000
 70
 32
 40
0.000000
  0
VERTEX
  8
0
 10
0.891520
 20
-0.111750
 30
0.600000
 70
 32
 40
0.000000
  0
VERTEX
  8
0
 10
0.975210
 20
-0.095460
 30
0.600000
 70
 32
 40
0.000000
  0
VERTEX
  8
0
 10
0.980700
 20
-0.093190
 30
0.600000
 70
 32
 40
0.000000
  0
VERTEX
  8
0
 10
1.009270
 20
-0.061620
 30
0.600000
 70
 32
 40
0.000000
  0
SEQEND
  8
0
  0
POLYLINE
  8
0
 62
14
  6
CONTINUOUS
 66
  1
 70
  8
  0
VERTEX
  8
0
 10
4.976320
 20
0.437590
 30
0.300000
 70
 32
 40
0.000000
  0
VERTEX
  8
0
 10
5.037910
 20
0.390890
 30
0.300000
 70
 32
 40
0.000000
  0
VERTEX
  8
0
 10
5.101270
 20
0.344470
 30
0.300000
 70
 32
 40
0.000000
  0
VERTEX
  8
0
 10
5.166570
 20
0.298430
 30
0.300000
 70
 32
 40
0.000000
  0
VERTEX
  8
0
 10
5.198550
 20
0.276580
 30
0.300000
 70
 32
 40
0.000000
  0
VERTEX
  8
0
 10
5.233940
 20
0.252910
 30
0.300000
 70
 32
 40
0.000000
  0
VERTEX
  8
0
 10
5.303270
 20
0.208060
 30
0.300000
 70
 32
 40
0.000000
  0
VERTEX
  8
0
 10
5.374680
 20
0.164020
 30
0.300000
 70
 32
 40
0.000000
  0
VERTEX
  8
0
 10
5.448400
 20
0.120990
 30
0.300000
 70
 32
 40
0.000000
  0
VERTEX
  8
0
 10
5.522980
 20
0.080040
 30
0.300000
 70
 32
 40
0.000000
  0
VERTEX
  8
0
 10
5.524650
 20
0.079160
 30
0.300000
 70
 32
 40
0.000000
  0
VERTEX
  8
0
 10
5.603400
 20
0.038740
 30
0.300000
 70
 32
 40
0.000000
  0
VERTEX
  8
0
 10
5.684630
 20
0.000000
 30
0.300000
 70
 32
 40
0.000000
  0
SEQEND
  8
0
  0
POLYLINE
  8
0
 62
14
  6
CONTINUOUS
 66
  1
 70
  8
  0
VERTEX
  8
0
 10
4.976320
 20
-0.437590
 30
0.300000
 70
 32
 40
0.000000
  0
VERTEX
  8
0
 10
5.037910
 20
-0.390890
 30
0.300000
 70
 32
 40
0.000000
  0
VERTEX
  8
0
 10
5.101270
 20
-0.344470
 30
0.300000
 70
 32
 40
0.000000
  0
VERTEX
  8
0
 10
5.166570
 20
-0.298430
 30
0.300000
 70
 32
 40
0.000000
  0
VERTEX
  8
0
 10
5.198550
 20
-0.276580
 30
0.300000
 70
 32
 40
0.000000
  0
VERTEX
  8
0
 10
5.233940
 20
-0.252910
 30
0.300000
 70
 32
 40
0.000000
  0
VERTEX
  8
0
 10
5.303270
 20
-0.208060
 30
0.300000
 70
 32
 40
0.000000
  0
VERTEX
  8
0
 10
5.374680
 20
-0.164020
 30
0.300000
 70
 32
 40
0.000000
  0
VERTEX
  8
0
 10
5.448400
 20
-0.120990
 30
0.300000
 70
 32
 40
0.000000
  0
VERTEX
  8
0
 10
5.522980
 20
-0.080040
 30
0.300000
 70
 32
 40
0.000000
  0
VERTEX
  8
0
 10
5.524650
 20
-0.079160
 30
0.300000
 70
 32
 40
0.000000
  0
VERTEX
  8
0
 10
5.603400
 20
-0.038740
 30
0.300000
 70
 32
 40
0.000000
  0
VERTEX
  8
0
 10
5.684630
 20
0.000000
 30
0.300000
 70
 32
 40
0.000000
  0
SEQEND
  8
0
  0
POLYLINE
  8
0
 62
14
  6
CONTINUOUS
 66
  1
 70
  8
  0
VERTEX
  8
0
 10
3.064340
 20
0.366690
 30
0.400000
 70
 32
 40
0.000000
  0
VERTEX
  8
0
 10
3.090590
 20
0.332760
 30
0.400000
 70
 32
 40
0.000000
  0
VERTEX
  8
0
 10
3.117090
 20
0.298220
 30
0.400000
 70
 32
 40
0.000000
  0
VERTEX
  8
0
 10
3.143860
 20
0.263050
 30
0.400000
 70
 32
 40
0.000000
  0
VERTEX
  8
0
 10
3.170900
 20
0.227270
 30
0.400000
 70
 32
 40
0.000000
  0
VERTEX
  8
0
 10
3.198230
 20
0.190880
 30
0.400000
 70
 32
 40
0.000000
  0
VERTEX
  8
0
 10
3.225870
 20
0.153890
 30
0.400000
 70
 32
 40
0.000000
  0
VERTEX
  8
0
 10
3.243720
 20
0.129900
 30
0.400000
 70
 32
 40
0.000000
  0
VERTEX
  8
0
 10
3.253830
 20
0.116300
 30
0.400000
 70
 32
 40
0.000000
  0
VERTEX
  8
0
 10
3.282110
 20
0.078110
 30
0.400000
 70
 32
 40
0.000000
  0
VERTEX
  8
0
 10
3.310710
 20
0.039350
 30
0.400000
 70
 32
 40
0.000000
  0
VERTEX
  8
0
 10
3.339670
 20
0.000000
 30
0.400000
 70
 32
 40
0.000000
  0
SEQEND
  8
0
  0
POLYLINE
  8
0
 62
14
  6
CONTINUOUS
 66
  1
 70
  8
  0
VERTEX
  8
0
 10
3.064340
 20
-0.366690
 30
0.400000
 70
 32
 40
0.000000
  0
VERTEX
  8
0
 10
3.090590
 20
-0.332760
 30
0.400000
 70
 32
 40
0.000000
  0
VERTEX
  8
0
 10
3.117090
 20
-0.298220
 30
0.400000
 70
 32
 40
0.000000
  0
VERTEX
  8
0
 10
3.143860
 20
-0.263050
 30
0.400000
 70
 32
 40
0.000000
  0
VERTEX
  8
0
 10
3.170900
 20
-0.227270
 30
0.400000
 70
 32
 40
0.000000
  0
VERTEX
  8
0
 10
3.198230
 20
-0.190880
 30
0.400000
 70
 32
 40
0.000000
  0
VERTEX
  8
0
 10
3.225870
 20
-0.153890
 30
0.400000
 70
 32
 40
0.000000
  0
VERTEX
  8
0
 10
3.243720
 20
-0.129900
 30
0.400000
 70
 32
 40
0.000000
  0
VERTEX
  8
0
 10
3.253830
 20
-0.116300
 30
0.400000
 70
 32
 40
0.000000
  0
VERTEX
  8
0
 10
3.282110
 20
-0.078110
 30
0.400000
 70
 32
 40
0.000000
  0
VERTEX
  8
0
 10
3.310710
 20
-0.039350
 30
0.400000
 70
 32
 40
0.000000
  0
VERTEX
  8
0
 10
3.339670
 20
0.000000
 30
0.400000
 70
 32
 40
0.000000
  0
SEQEND
  8
0
  0
POLYLINE
  8
0
 62
14
  6
CONTINUOUS
 66
  1
 70
  8
  0
VERTEX
  8
0
 10
1.954500
 20
0.202540
 30
0.500000
 70
 32
 40
0.000000
  0
VERTEX
  8
0
 10
1.974960
 20
0.185330
 30
0.500000
 70
 32
 40
0.000000
  0
VERTEX
  8
0
 10
1.995450
 20
0.167450
 30
0.500000
 70
 32
 40
0.000000
  0
VERTEX
  8
0
 10
2.015970
 20
0.148880
 30
0.500000
 70
 32
 40
0.000000
  0
VERTEX
  8
0
 10
2.036510
 20
0.129640
 30
0.500000
 70
 32
 40
0.000000
  0
VERTEX
  8
0
 10
2.057070
 20
0.109720
 30
0.500000
 70
 32
 40
0.000000
  0
VERTEX
  8
0
 10
2.077650
 20
0.089130
 30
0.500000
 70
 32
 40
0.000000
  0
VERTEX
  8
0
 10
2.098250
 20
0.067860
 30
0.500000
 70
 32
 40
0.000000
  0
VERTEX
  8
0
 10
2.118860
 20
0.045910
 30
0.500000
 70
 32
 40
0.000000
  0
VERTEX
  8
0
 10
2.139480
 20
0.023290
 30
0.500000
 70
 32
 40
0.000000
  0
VERTEX
  8
0
 10
2.160110
 20
0.000000
 30
0.500000
 70
 32
 40
0.000000
  0
SEQEND
  8
0
  0
POLYLINE
  8
0
 62
14
  6
CONTINUOUS
 66
  1
 70
  8
  0
VERTEX
  8
0
 10
1.954500
 20
-0.202540
 30
0.500000
 70
 32
 40
0.000000
  0
VERTEX
  8
0
 10
1.974960
 20
-0.185330
 30
0.500000
 70
 32
 40
0.000000
  0
VERTEX
  8
0
 10
1.995450
 20
-0.167450
 30
0.500000
 70
 32
 40
0.000000
  0
VERTEX
  8
0
 10
2.015970
 20
-0.148880
 30
0.500000
 70
 32
 40
0.000000
  0
VERTEX
  8
0
 10
2.036510
 20
-0.129640
 30
0.500000
 70
 32
 40
0.000000
  0
VERTEX
  8
0
 10
2.057070
 20
-0.109720
 30
0.500000
 70
 32
 40
0.000000
  0
VERTEX
  8
0
 10
2.077650
 20
-0.089130
 30
0.500000
 70
 32
 40
0.000000
  0
VERTEX
  8
0
 10
2.098250
 20
-0.067860
 30
0.500000
 70
 32
 40
0.000000
  0
VERTEX
  8
0
 10
2.118860
 20
-0.045910
 30
0.500000
 70
 32
 40
0.000000
  0
VERTEX
  8
0
 10
2.139480
 20
-0.023290
 30
0.500000
 70
 32
 40
0.000000
  0
VERTEX
  8
0
 10
2.160110
 20
0.000000
 30
0.500000
 70
 32
 40
0.000000
  0
SEQEND
  8
0
  0
POLYLINE
  8
0
 62
14
  6
CONTINUOUS
 66
  1
 70
  8
  0
VERTEX
  8
0
 10
1.009270
 20
0.061620
 30
0.600000
 70
 32
 40
0.000000
  0
VERTEX
  8
0
 10
1.026510
 20
0.057320
 30
0.600000
 70
 32
 40
0.000000
  0
VERTEX
  8
0
 10
1.044000
 20
0.052650
 30
0.600000
 70
 32
 40
0.000000
  0
VERTEX
  8
0
 10
1.061740
 20
0.047600
 30
0.600000
 70
 32
 40
0.000000
  0
VERTEX
  8
0
 10
1.079730
 20
0.042150
 30
0.600000
 70
 32
 40
0.000000
  0
VERTEX
  8
0
 10
1.097940
 20
0.036280
 30
0.600000
 70
 32
 40
0.000000
  0
VERTEX
  8
0
 10
1.116370
 20
0.029970
 30
0.600000
 70
 32
 40
0.000000
  0
VERTEX
  8
0
 10
1.135000
 20
0.023200
 30
0.600000
 70
 32
 40
0.000000
  0
VERTEX
  8
0
 10
1.153830
 20
0.015960
 30
0.600000
 70
 32
 40
0.000000
  0
VERTEX
  8
0
 10
1.172850
 20
0.008240
 30
0.600000
 70
 32
 40
0.000000
  0
VERTEX
  8
0
 10
1.192030
 20
0.000000
 30
0.600000
 70
 32
 40
0.000000
  0
SEQEND
  8
0
  0
POLYLINE
  8
0
 62
14
  6
CONTINUOUS
 66
  1
 70
  8
  0
VERTEX
  8
0
 10
1.009270
 20
-0.061620
 30
0.600000
 70
 32
 40
0.000000
  0
VERTEX
  8
0
 10
1.026510
 20
-0.057320
 30
0.600000
 70
 32
 40
0.000000
  0
VERTEX
  8
0
 10
1.044000
 20
-0.052650
 30
0.600000
 70
 32
 40
0.000000
  0
VERTEX
  8
0
 10
1.061740
 20
-0.047600
 30
0.600000
 70
 32
 40
0.000000
  0
VERTEX
  8
0
 10
1.079730
 20
-0.042150
 30
0.600000
 70
 32
 40
0.000000
  0
VERTEX
  8
0
 10
1.097940
 20
-0.036280
 30
0.600000
 70
 32
 40
0.000000
  0
VERTEX
  8
0
 10
1.116370
 20
-0.029970
 30
0.600000
 70
 32
 40
0.000000
  0
VERTEX
  8
0
 10
1.135000
 20
-0.023200
 30
0.600000
 70
 32
 40
0.000000
  0
VERTEX
  8
0
 10
1.153830
 20
-0.015960
 30
0.600000
 70
 32
 40
0.000000
  0
VERTEX
  8
0
 10
1.172850
 20
-0.008240
 30
0.600000
 70
 32
 40
0.000000
  0
VERTEX
  8
0
 10
1.192030
 20
0.000000
 30
0.600000
 70
 32
 40
0.000000
  0
SEQEND
  8
0
  0
ENDSEC
  0
EOF
